  0
SECTION
  2
HEADER
  9
$ACADVER
  1
AC1018
  9
$ACADMAINTVER
 70
     0
  9
$DWGCODEPAGE
  3
ANSI_1252
  9
$INSBASE
 10
0.0
 20
0.0
 30
0.0
  9
$EXTMIN
 10
-4.218173228346457
 20
2.646763779527559
 30
0.0
  9
$EXTMAX
 10
4.054413385826772
 20
5.333031496062993
 30
0.0
  9
$LIMMIN
 10
0.0
 20
0.0
  9
$LIMMAX
 10
12.0
 20
9.0
  9
$ORTHOMODE
 70
     0
  9
$REGENMODE
 70
     1
  9
$FILLMODE
 70
     1
  9
$QTEXTMODE
 70
     0
  9
$MIRRTEXT
 70
     1
  9
$LTSCALE
 40
1.0
  9
$ATTMODE
 70
     1
  9
$TEXTSIZE
 40
0.2
  9
$TRACEWID
 40
0.05
  9
$TEXTSTYLE
  7
Standard
  9
$CLAYER
  8
0
  9
$CELTYPE
  6
ByLayer
  9
$CECOLOR
 62
   256
  9
$CELTSCALE
 40
1.0
  9
$DISPSILH
 70
     0
  9
$DIMSCALE
 40
1.0
  9
$DIMASZ
 40
0.18
  9
$DIMEXO
 40
0.0625
  9
$DIMDLI
 40
0.38
  9
$DIMRND
 40
0.0
  9
$DIMDLE
 40
0.0
  9
$DIMEXE
 40
0.18
  9
$DIMTP
 40
0.0
  9
$DIMTM
 40
0.0
  9
$DIMTXT
 40
0.18
  9
$DIMCEN
 40
0.09
  9
$DIMTSZ
 40
0.0
  9
$DIMTOL
 70
     0
  9
$DIMLIM
 70
     0
  9
$DIMTIH
 70
     1
  9
$DIMTOH
 70
     1
  9
$DIMSE1
 70
     0
  9
$DIMSE2
 70
     0
  9
$DIMTAD
 70
     0
  9
$DIMZIN
 70
     0
  9
$DIMBLK
  1

  9
$DIMASO
 70
     1
  9
$DIMSHO
 70
     1
  9
$DIMPOST
  1

  9
$DIMAPOST
  1

  9
$DIMALT
 70
     0
  9
$DIMALTD
 70
     2
  9
$DIMALTF
 40
25.4
  9
$DIMLFAC
 40
1.0
  9
$DIMTOFL
 70
     0
  9
$DIMTVP
 40
0.0
  9
$DIMTIX
 70
     0
  9
$DIMSOXD
 70
     0
  9
$DIMSAH
 70
     0
  9
$DIMBLK1
  1

  9
$DIMBLK2
  1

  9
$DIMSTYLE
  2
Standard
  9
$DIMCLRD
 70
     0
  9
$DIMCLRE
 70
     0
  9
$DIMCLRT
 70
     0
  9
$DIMTFAC
 40
1.0
  9
$DIMGAP
 40
0.09
  9
$DIMJUST
 70
     0
  9
$DIMSD1
 70
     0
  9
$DIMSD2
 70
     0
  9
$DIMTOLJ
 70
     1
  9
$DIMTZIN
 70
     0
  9
$DIMALTZ
 70
     0
  9
$DIMALTTZ
 70
     0
  9
$DIMUPT
 70
     0
  9
$DIMDEC
 70
     4
  9
$DIMTDEC
 70
     4
  9
$DIMALTU
 70
     2
  9
$DIMALTTD
 70
     2
  9
$DIMTXSTY
  7
Standard
  9
$DIMAUNIT
 70
     0
  9
$DIMADEC
 70
     0
  9
$DIMALTRND
 40
0.0
  9
$DIMAZIN
 70
     0
  9
$DIMDSEP
 70
    46
  9
$DIMATFIT
 70
     3
  9
$DIMFRAC
 70
     0
  9
$DIMLDRBLK
  1

  9
$DIMLUNIT
 70
     2
  9
$DIMLWD
 70
    -2
  9
$DIMLWE
 70
    -2
  9
$DIMTMOVE
 70
     0
  9
$LUNITS
 70
     2
  9
$LUPREC
 70
     4
  9
$SKETCHINC
 40
0.1
  9
$FILLETRAD
 40
0.5
  9
$AUNITS
 70
     0
  9
$AUPREC
 70
     0
  9
$MENU
  1
.
  9
$ELEVATION
 40
0.0
  9
$PELEVATION
 40
0.0
  9
$THICKNESS
 40
0.0
  9
$LIMCHECK
 70
     0
  9
$CHAMFERA
 40
0.5
  9
$CHAMFERB
 40
0.5
  9
$CHAMFERC
 40
1.0
  9
$CHAMFERD
 40
0.0
  9
$SKPOLY
 70
     0
  9
$TDCREATE
 40
2455603.569626609
  9
$TDUCREATE
 40
2455603.819626609
  9
$TDUPDATE
 40
2455603.569626621
  9
$TDUUPDATE
 40
2455603.819626621
  9
$TDINDWG
 40
0.0000000116
  9
$TDUSRTIMER
 40
0.0000000116
  9
$USRTIMER
 70
     1
  9
$ANGBASE
 50
0.0
  9
$ANGDIR
 70
     0
  9
$PDMODE
 70
     0
  9
$PDSIZE
 40
0.0
  9
$PLINEWID
 40
0.0
  9
$SPLFRAME
 70
     0
  9
$SPLINETYPE
 70
     6
  9
$SPLINESEGS
 70
     8
  9
$HANDSEED
  5
5A
  9
$SURFTAB1
 70
     6
  9
$SURFTAB2
 70
     6
  9
$SURFTYPE
 70
     6
  9
$SURFU
 70
     6
  9
$SURFV
 70
     6
  9
$UCSBASE
  2

  9
$UCSNAME
  2

  9
$UCSORG
 10
0.0
 20
0.0
 30
0.0
  9
$UCSXDIR
 10
1.0
 20
0.0
 30
0.0
  9
$UCSYDIR
 10
0.0
 20
1.0
 30
0.0
  9
$UCSORTHOREF
  2

  9
$UCSORTHOVIEW
 70
     0
  9
$UCSORGTOP
 10
0.0
 20
0.0
 30
0.0
  9
$UCSORGBOTTOM
 10
0.0
 20
0.0
 30
0.0
  9
$UCSORGLEFT
 10
0.0
 20
0.0
 30
0.0
  9
$UCSORGRIGHT
 10
0.0
 20
0.0
 30
0.0
  9
$UCSORGFRONT
 10
0.0
 20
0.0
 30
0.0
  9
$UCSORGBACK
 10
0.0
 20
0.0
 30
0.0
  9
$PUCSBASE
  2

  9
$PUCSNAME
  2

  9
$PUCSORG
 10
0.0
 20
0.0
 30
0.0
  9
$PUCSXDIR
 10
1.0
 20
0.0
 30
0.0
  9
$PUCSYDIR
 10
0.0
 20
1.0
 30
0.0
  9
$PUCSORTHOREF
  2

  9
$PUCSORTHOVIEW
 70
     0
  9
$PUCSORGTOP
 10
0.0
 20
0.0
 30
0.0
  9
$PUCSORGBOTTOM
 10
0.0
 20
0.0
 30
0.0
  9
$PUCSORGLEFT
 10
0.0
 20
0.0
 30
0.0
  9
$PUCSORGRIGHT
 10
0.0
 20
0.0
 30
0.0
  9
$PUCSORGFRONT
 10
0.0
 20
0.0
 30
0.0
  9
$PUCSORGBACK
 10
0.0
 20
0.0
 30
0.0
  9
$USERI1
 70
     0
  9
$USERI2
 70
     0
  9
$USERI3
 70
     0
  9
$USERI4
 70
     0
  9
$USERI5
 70
     0
  9
$USERR1
 40
0.0
  9
$USERR2
 40
0.0
  9
$USERR3
 40
0.0
  9
$USERR4
 40
0.0
  9
$USERR5
 40
0.0
  9
$WORLDVIEW
 70
     1
  9
$SHADEDGE
 70
     3
  9
$SHADEDIF
 70
    70
  9
$TILEMODE
 70
     1
  9
$MAXACTVP
 70
    64
  9
$PINSBASE
 10
0.0
 20
0.0
 30
0.0
  9
$PLIMCHECK
 70
     0
  9
$PEXTMIN
 10
1.000000000000000E+20
 20
1.000000000000000E+20
 30
1.000000000000000E+20
  9
$PEXTMAX
 10
-1.000000000000000E+20
 20
-1.000000000000000E+20
 30
-1.000000000000000E+20
  9
$PLIMMIN
 10
0.0
 20
0.0
  9
$PLIMMAX
 10
12.0
 20
9.0
  9
$UNITMODE
 70
     0
  9
$VISRETAIN
 70
     1
  9
$PLINEGEN
 70
     0
  9
$PSLTSCALE
 70
     1
  9
$TREEDEPTH
 70
  3020
  9
$CMLSTYLE
  2
Standard
  9
$CMLJUST
 70
     0
  9
$CMLSCALE
 40
1.0
  9
$PROXYGRAPHICS
 70
     1
  9
$MEASUREMENT
 70
     0
  9
$CELWEIGHT
370
    -1
  9
$ENDCAPS
280
     0
  9
$JOINSTYLE
280
     0
  9
$LWDISPLAY
290
     0
  9
$INSUNITS
 70
     1
  9
$HYPERLINKBASE
  1

  9
$STYLESHEET
  1

  9
$XEDIT
290
     1
  9
$CEPSNTYPE
380
     0
  9
$PSTYLEMODE
290
     0
  9
$FINGERPRINTGUID
  2
{FAEB1C30-E019-11D5-929B-00C0DF256EC4}
  9
$VERSIONGUID
  2
{FAEB1C32-E019-11D5-929B-00C0DF256EC4}
  9
$EXTNAMES
290
     1
  9
$PSVPSCALE
 40
0.0
  9
$OLESTARTUP
290
     0
  9
$SORTENTS
280
   127
  9
$INDEXCTL
280
     0
  9
$HIDETEXT
280
     1
  9
$XCLIPFRAME
290
     0
  9
$HALOGAP
280
     0
  9
$OBSCOLOR
 70
   257
  9
$OBSLTYPE
280
     0
  9
$INTERSECTIONDISPLAY
280
     0
  9
$INTERSECTIONCOLOR
 70
   257
  9
$DIMASSOC
280
     2
  9
$PROJECTNAME
  1

  0
ENDSEC
  0
SECTION
  2
CLASSES
  0
CLASS
  1
ACDBDICTIONARYWDFLT
  2
AcDbDictionaryWithDefault
  3
ObjectDBX Classes
 90
        0
 91
        1
280
     0
281
     0
  0
CLASS
  1
IMAGEDEF
  2
AcDbRasterImageDef
  3
ISM
 90
        0
 91
        1
280
     0
281
     0
  0
CLASS
  1
IMAGE
  2
AcDbRasterImage
  3
ISM
 90
      127
 91
        1
280
     0
281
     1
  0
CLASS
  1
IMAGEDEF_REACTOR
  2
AcDbRasterImageDefReactor
  3
ISM
 90
        1
 91
        1
280
     0
281
     0
  0
ENDSEC
  0
SECTION
  2
TABLES
  0
TABLE
  2
VPORT
  5
8
330
0
100
AcDbSymbolTable
 70
     2
  0
VPORT
  5
29
330
8
100
AcDbSymbolTableRecord
100
AcDbViewportTableRecord
  2
*Active
 70
     0
 10
0.0
 20
0.0
 11
1.0
 21
1.0
 12
10.42990654205607
 22
4.5
 13
0.0
 23
0.0
 14
0.5
 24
0.5
 15
0.5
 25
0.5
 16
0.0
 26
0.0
 36
1.0
 17
0.0
 27
0.0
 37
0.0
 40
9.0
 41
1.972972972850329
 42
50.0
 43
0.0
 44
0.0
 50
0.0
 51
0.0
 71
     0
 72
   100
 73
     1
 74
     3
 75
     0
 76
     0
 77
     0
 78
     0
281
     0
 65
     1
110
0.0
120
0.0
130
0.0
111
1.0
121
0.0
131
0.0
112
0.0
122
1.0
132
0.0
 79
     0
146
0.0
  0
ENDTAB
  0
TABLE
  2
LTYPE
  5
5
330
0
100
AcDbSymbolTable
 70
     1
  0
LTYPE
  5
14
330
5
100
AcDbSymbolTableRecord
100
AcDbLinetypeTableRecord
  2
ByBlock
 70
     0
  3

 72
    65
 73
     0
 40
0.0
  0
LTYPE
  5
15
330
5
100
AcDbSymbolTableRecord
100
AcDbLinetypeTableRecord
  2
ByLayer
 70
     0
  3

 72
    65
 73
     0
 40
0.0
  0
LTYPE
  5
16
330
5
100
AcDbSymbolTableRecord
100
AcDbLinetypeTableRecord
  2
Continuous
 70
     0
  3
Solid line
 72
    65
 73
     0
 40
0.0
  0
ENDTAB
  0
TABLE
  2
LAYER
  5
2
330
0
100
AcDbSymbolTable
 70
     2
  0
LAYER
  5
10
330
2
100
AcDbSymbolTableRecord
100
AcDbLayerTableRecord
  2
0
 70
     0
 62
     7
  6
Continuous
370
    -3
390
F
  0
LAYER
  5
2B
330
2
100
AcDbSymbolTableRecord
100
AcDbLayerTableRecord
  2
Layer 1
 70
     0
 62
     7
  6
Continuous
370
    -3
390
F
  0
ENDTAB
  0
TABLE
  2
STYLE
  5
3
330
0
100
AcDbSymbolTable
 70
     1
  0
STYLE
  5
11
330
3
100
AcDbSymbolTableRecord
100
AcDbTextStyleTableRecord
  2
Standard
 70
     0
 40
0.0
 41
1.0
 50
0.0
 71
     0
 42
0.2
  3
txt
  4

  0
ENDTAB
  0
TABLE
  2
VIEW
  5
6
330
0
100
AcDbSymbolTable
 70
     0
  0
ENDTAB
  0
TABLE
  2
UCS
  5
7
330
0
100
AcDbSymbolTable
 70
     0
  0
ENDTAB
  0
TABLE
  2
APPID
  5
9
330
0
100
AcDbSymbolTable
 70
     2
  0
APPID
  5
12
330
9
100
AcDbSymbolTableRecord
100
AcDbRegAppTableRecord
  2
ACAD
 70
     0
  0
APPID
  5
2A
330
9
100
AcDbSymbolTableRecord
100
AcDbRegAppTableRecord
  2
ODA
 70
     0
  0
ENDTAB
  0
TABLE
  2
DIMSTYLE
  5
A
330
0
100
AcDbSymbolTable
 70
     1
100
AcDbDimStyleTable
  0
DIMSTYLE
105
27
330
A
100
AcDbSymbolTableRecord
100
AcDbDimStyleTableRecord
  2
Standard
 70
     0
340
11
  0
ENDTAB
  0
TABLE
  2
BLOCK_RECORD
  5
1
330
0
100
AcDbSymbolTable
 70
     1
  0
BLOCK_RECORD
  5
1F
330
1
100
AcDbSymbolTableRecord
100
AcDbBlockTableRecord
  2
*Model_Space
340
22
  0
BLOCK_RECORD
  5
1B
330
1
100
AcDbSymbolTableRecord
100
AcDbBlockTableRecord
  2
*Paper_Space
340
1E
  0
BLOCK_RECORD
  5
23
330
1
100
AcDbSymbolTableRecord
100
AcDbBlockTableRecord
  2
*Paper_Space0
340
26
  0
ENDTAB
  0
ENDSEC
  0
SECTION
  2
BLOCKS
  0
BLOCK
  5
20
330
1F
100
AcDbEntity
  8
0
100
AcDbBlockBegin
  2
*Model_Space
 70
     0
 71
     0
 10
0.0
 20
0.0
 30
0.0
  3
*Model_Space
  1

  0
ENDBLK
  5
21
330
1F
100
AcDbEntity
  8
0
100
AcDbBlockEnd
  0
BLOCK
  5
1C
330
1B
100
AcDbEntity
 67
     1
  8
0
100
AcDbBlockBegin
  2
*Paper_Space
 70
     0
 71
     0
 10
0.0
 20
0.0
 30
0.0
  3
*Paper_Space
  1

  0
ENDBLK
  5
1D
330
1B
100
AcDbEntity
 67
     1
  8
0
100
AcDbBlockEnd
  0
BLOCK
  5
24
330
23
100
AcDbEntity
  8
0
100
AcDbBlockBegin
  2
*Paper_Space0
 70
     0
 71
     0
 10
0.0
 20
0.0
 30
0.0
  3
*Paper_Space0
  1

  0
ENDBLK
  5
25
330
23
100
AcDbEntity
  8
0
100
AcDbBlockEnd
  0
ENDSEC
  0
SECTION
  2
ENTITIES
  0
IMAGE
  5
2E
330
1F
100
AcDbEntity
  8
Layer 1
 62
     0
 92
        8
310
0000000000000000
100
AcDbRasterImage
 90
        0
 10
-4.218169291338583
 20
2.646763779527559
 30
0.0
 11
0.004647521057736557
 21
0.0
 31
0.0
 12
0.0
 22
0.004647521057736556
 32
0.0
 13
1779.0
 23
578.0
340
2D
 70
     3
280
     1
281
    50
282
    50
283
     0
360
2F
 71
     1
 91
        2
 14
-4.218169291338583
 24
2.646763779527559
 14
20.50405118110236
 24
10.67454330708661
  0
SPLINE
  5
30
330
1F
100
AcDbEntity
  8
Layer 1
 62
   176
100
AcDbSpline
210
0.0
220
0.0
230
1.0
 70
    11
 71
     3
 72
    36
 73
    32
 74
     0
 42
0.0000000001
 43
0.0000000001
 40
0.0
 40
0.0
 40
0.0
 40
0.0
 40
0.125
 40
0.125
 40
0.125
 40
0.125
 40
0.25
 40
0.25
 40
0.25
 40
0.25
 40
0.375
 40
0.375
 40
0.375
 40
0.375
 40
0.5
 40
0.5
 40
0.5
 40
0.5
 40
0.625
 40
0.625
 40
0.625
 40
0.625
 40
0.75
 40
0.75
 40
0.75
 40
0.75
 40
0.875
 40
0.875
 40
0.875
 40
0.875
 40
1.0
 40
1.0
 40
1.0
 40
1.0
 10
3.847011811023622
 20
3.334826771653543
 30
0.0
 10
3.847011811023622
 20
3.334826771653543
 30
0.0
 10
3.70559842519685
 20
3.334826771653543
 30
0.0
 10
3.70559842519685
 20
3.334826771653543
 30
0.0
 10
3.70559842519685
 20
3.334826771653543
 30
0.0
 10
3.683594488188977
 20
3.334826771653543
 30
0.0
 10
3.672602362204724
 20
3.345814960629921
 30
0.0
 10
3.672602362204724
 20
3.367814960629922
 30
0.0
 10
3.672602362204724
 20
3.367814960629922
 30
0.0
 10
3.672602362204724
 20
3.367814960629922
 30
0.0
 10
3.672602362204724
 20
3.697708661417323
 30
0.0
 10
3.672602362204724
 20
3.697708661417323
 30
0.0
 10
3.672602362204724
 20
3.697708661417323
 30
0.0
 10
3.672602362204724
 20
3.719708661417323
 30
0.0
 10
3.683594488188977
 20
3.730696850393701
 30
0.0
 10
3.70559842519685
 20
3.730696850393701
 30
0.0
 10
3.70559842519685
 20
3.730696850393701
 30
0.0
 10
3.70559842519685
 20
3.730696850393701
 30
0.0
 10
3.837582677165354
 20
3.730696850393701
 30
0.0
 10
3.837582677165354
 20
3.730696850393701
 30
0.0
 10
3.837582677165354
 20
3.730696850393701
 30
0.0
 10
3.871279527559056
 20
3.730696850393701
 30
0.0
 10
3.884720472440945
 20
3.717259842519685
 30
0.0
 10
3.884720472440945
 20
3.683566929133858
 30
0.0
 10
3.884720472440945
 20
3.683566929133858
 30
0.0
 10
3.884720472440945
 20
3.683566929133858
 30
0.0
 10
3.884720472440945
 20
3.381952755905512
 30
0.0
 10
3.884720472440945
 20
3.381952755905512
 30
0.0
 10
3.884720472440945
 20
3.381952755905512
 30
0.0
 10
3.884720472440945
 20
3.353846456692914
 30
0.0
 10
3.875106299212598
 20
3.334826771653543
 30
0.0
 10
3.847011811023622
 20
3.334826771653543
 30
0.0
  0
SPLINE
  5
31
330
1F
100
AcDbEntity
  8
Layer 1
 62
   176
100
AcDbSpline
210
0.0
220
0.0
230
1.0
 70
    11
 71
     3
 72
    36
 73
    32
 74
     0
 42
0.0000000001
 43
0.0000000001
 40
0.0
 40
0.0
 40
0.0
 40
0.0
 40
0.125
 40
0.125
 40
0.125
 40
0.125
 40
0.25
 40
0.25
 40
0.25
 40
0.25
 40
0.375
 40
0.375
 40
0.375
 40
0.375
 40
0.5
 40
0.5
 40
0.5
 40
0.5
 40
0.625
 40
0.625
 40
0.625
 40
0.625
 40
0.75
 40
0.75
 40
0.75
 40
0.75
 40
0.875
 40
0.875
 40
0.875
 40
0.875
 40
1.0
 40
1.0
 40
1.0
 40
1.0
 10
2.088791338582677
 20
3.381952755905512
 30
0.0
 10
2.088791338582677
 20
3.381952755905512
 30
0.0
 10
2.088791338582677
 20
3.697708661417323
 30
0.0
 10
2.088791338582677
 20
3.697708661417323
 30
0.0
 10
2.088791338582677
 20
3.697708661417323
 30
0.0
 10
2.088791338582677
 20
3.719708661417323
 30
0.0
 10
2.099779527559055
 20
3.730696850393701
 30
0.0
 10
2.121787401574803
 20
3.730696850393701
 30
0.0
 10
2.121787401574803
 20
3.730696850393701
 30
0.0
 10
2.121787401574803
 20
3.730696850393701
 30
0.0
 10
2.263196850393701
 20
3.730696850393701
 30
0.0
 10
2.263196850393701
 20
3.730696850393701
 30
0.0
 10
2.263196850393701
 20
3.730696850393701
 30
0.0
 10
2.285200787401575
 20
3.730696850393701
 30
0.0
 10
2.296196850393701
 20
3.719708661417323
 30
0.0
 10
2.296196850393701
 20
3.697708661417323
 30
0.0
 10
2.296196850393701
 20
3.697708661417323
 30
0.0
 10
2.296196850393701
 20
3.697708661417323
 30
0.0
 10
2.296196850393701
 20
3.367814960629922
 30
0.0
 10
2.296196850393701
 20
3.367814960629922
 30
0.0
 10
2.296196850393701
 20
3.367814960629922
 30
0.0
 10
2.296196850393701
 20
3.345814960629921
 30
0.0
 10
2.285200787401575
 20
3.334826771653543
 30
0.0
 10
2.263196850393701
 20
3.334826771653543
 30
0.0
 10
2.263196850393701
 20
3.334826771653543
 30
0.0
 10
2.263196850393701
 20
3.334826771653543
 30
0.0
 10
2.1265
 20
3.334826771653543
 30
0.0
 10
2.1265
 20
3.334826771653543
 30
0.0
 10
2.1265
 20
3.334826771653543
 30
0.0
 10
2.098405511811024
 20
3.334826771653543
 30
0.0
 10
2.088791338582677
 20
3.353846456692914
 30
0.0
 10
2.088791338582677
 20
3.381952755905512
 30
0.0
  0
SPLINE
  5
32
330
1F
100
AcDbEntity
  8
Layer 1
 62
   176
100
AcDbSpline
210
0.0
220
0.0
230
1.0
 70
    11
 71
     3
 72
    20
 73
    16
 74
     0
 42
0.0000000001
 43
0.0000000001
 40
0.0
 40
0.0
 40
0.0
 40
0.0
 40
0.25
 40
0.25
 40
0.25
 40
0.25
 40
0.5
 40
0.5
 40
0.5
 40
0.5
 40
0.75
 40
0.75
 40
0.75
 40
0.75
 40
1.0
 40
1.0
 40
1.0
 40
1.0
 10
2.593157480314961
 20
3.466783464566929
 30
0.0
 10
2.593157480314961
 20
3.466783464566929
 30
0.0
 10
3.375637795275591
 20
3.466783464566929
 30
0.0
 10
3.375637795275591
 20
3.466783464566929
 30
0.0
 10
3.375637795275591
 20
3.466783464566929
 30
0.0
 10
3.375637795275591
 20
3.466783464566929
 30
0.0
 10
3.375637795275591
 20
3.396090551181103
 30
0.0
 10
3.375637795275591
 20
3.396090551181103
 30
0.0
 10
3.375637795275591
 20
3.396090551181103
 30
0.0
 10
3.375637795275591
 20
3.396090551181103
 30
0.0
 10
2.593157480314961
 20
3.396090551181103
 30
0.0
 10
2.593157480314961
 20
3.396090551181103
 30
0.0
 10
2.593157480314961
 20
3.396090551181103
 30
0.0
 10
2.593157480314961
 20
3.396090551181103
 30
0.0
 10
2.593157480314961
 20
3.466783464566929
 30
0.0
 10
2.593157480314961
 20
3.466783464566929
 30
0.0
  0
SPLINE
  5
33
330
1F
100
AcDbEntity
  8
Layer 1
 62
   176
100
AcDbSpline
210
0.0
220
0.0
230
1.0
 70
    11
 71
     3
 72
    20
 73
    16
 74
     0
 42
0.0000000001
 43
0.0000000001
 40
0.0
 40
0.0
 40
0.0
 40
0.0
 40
0.25
 40
0.25
 40
0.25
 40
0.25
 40
0.5
 40
0.5
 40
0.5
 40
0.5
 40
0.75
 40
0.75
 40
0.75
 40
0.75
 40
1.0
 40
1.0
 40
1.0
 40
1.0
 10
2.593157480314961
 20
3.697708661417323
 30
0.0
 10
2.593157480314961
 20
3.697708661417323
 30
0.0
 10
3.375637795275591
 20
3.697708661417323
 30
0.0
 10
3.375637795275591
 20
3.697708661417323
 30
0.0
 10
3.375637795275591
 20
3.697708661417323
 30
0.0
 10
3.375637795275591
 20
3.697708661417323
 30
0.0
 10
3.375637795275591
 20
3.627015748031496
 30
0.0
 10
3.375637795275591
 20
3.627015748031496
 30
0.0
 10
3.375637795275591
 20
3.627015748031496
 30
0.0
 10
3.375637795275591
 20
3.627015748031496
 30
0.0
 10
2.593157480314961
 20
3.627015748031496
 30
0.0
 10
2.593157480314961
 20
3.627015748031496
 30
0.0
 10
2.593157480314961
 20
3.627015748031496
 30
0.0
 10
2.593157480314961
 20
3.627015748031496
 30
0.0
 10
2.593157480314961
 20
3.697708661417323
 30
0.0
 10
2.593157480314961
 20
3.697708661417323
 30
0.0
  0
SPLINE
  5
34
330
1F
100
AcDbEntity
  8
Layer 1
 62
   176
100
AcDbSpline
210
0.0
220
0.0
230
1.0
 70
    11
 71
     3
 72
    36
 73
    32
 74
     0
 42
0.0000000001
 43
0.0000000001
 40
0.0
 40
0.0
 40
0.0
 40
0.0
 40
0.125
 40
0.125
 40
0.125
 40
0.125
 40
0.25
 40
0.25
 40
0.25
 40
0.25
 40
0.375
 40
0.375
 40
0.375
 40
0.375
 40
0.5
 40
0.5
 40
0.5
 40
0.5
 40
0.625
 40
0.625
 40
0.625
 40
0.625
 40
0.75
 40
0.75
 40
0.75
 40
0.75
 40
0.875
 40
0.875
 40
0.875
 40
0.875
 40
1.0
 40
1.0
 40
1.0
 40
1.0
 10
3.036248031496063
 20
4.112429133858268
 30
0.0
 10
3.036248031496063
 20
4.112429133858268
 30
0.0
 10
3.036248031496063
 20
4.649681102362205
 30
0.0
 10
3.036248031496063
 20
4.649681102362205
 30
0.0
 10
3.036248031496063
 20
4.649681102362205
 30
0.0
 10
3.036248031496063
 20
4.685011811023622
 30
0.0
 10
3.052763779527559
 20
4.701523622047244
 30
0.0
 10
3.088102362204725
 20
4.701523622047244
 30
0.0
 10
3.088102362204725
 20
4.701523622047244
 30
0.0
 10
3.088102362204725
 20
4.701523622047244
 30
0.0
 10
3.903574803149606
 20
4.701523622047244
 30
0.0
 10
3.903574803149606
 20
4.701523622047244
 30
0.0
 10
3.903574803149606
 20
4.701523622047244
 30
0.0
 10
3.93544094488189
 20
4.701523622047244
 30
0.0
 10
3.955425196850394
 20
4.684665354330709
 30
0.0
 10
3.955425196850394
 20
4.654393700787402
 30
0.0
 10
3.955425196850394
 20
4.654393700787402
 30
0.0
 10
3.955425196850394
 20
4.654393700787402
 30
0.0
 10
3.955425196850394
 20
4.103003937007874
 30
0.0
 10
3.955425196850394
 20
4.103003937007874
 30
0.0
 10
3.955425196850394
 20
4.103003937007874
 30
0.0
 10
3.955425196850394
 20
4.08346062992126
 30
0.0
 10
3.927114173228347
 20
4.060586614173229
 30
0.0
 10
3.89886220472441
 20
4.060586614173229
 30
0.0
 10
3.89886220472441
 20
4.060586614173229
 30
0.0
 10
3.89886220472441
 20
4.060586614173229
 30
0.0
 10
3.092814960629922
 20
4.060586614173229
 30
0.0
 10
3.092814960629922
 20
4.060586614173229
 30
0.0
 10
3.092814960629922
 20
4.060586614173229
 30
0.0
 10
3.058161417322835
 20
4.060586614173229
 30
0.0
 10
3.036248031496063
 20
4.077200787401575
 30
0.0
 10
3.036248031496063
 20
4.112429133858268
 30
0.0
  0
SPLINE
  5
35
330
1F
100
AcDbEntity
  8
Layer 1
 62
   176
100
AcDbSpline
210
0.0
220
0.0
230
1.0
 70
    11
 71
     3
 72
    36
 73
    32
 74
     0
 42
0.0000000001
 43
0.0000000001
 40
0.0
 40
0.0
 40
0.0
 40
0.0
 40
0.125
 40
0.125
 40
0.125
 40
0.125
 40
0.25
 40
0.25
 40
0.25
 40
0.25
 40
0.375
 40
0.375
 40
0.375
 40
0.375
 40
0.5
 40
0.5
 40
0.5
 40
0.5
 40
0.625
 40
0.625
 40
0.625
 40
0.625
 40
0.75
 40
0.75
 40
0.75
 40
0.75
 40
0.875
 40
0.875
 40
0.875
 40
0.875
 40
1.0
 40
1.0
 40
1.0
 40
1.0
 10
2.046366141732284
 20
4.107716535433071
 30
0.0
 10
2.046366141732284
 20
4.107716535433071
 30
0.0
 10
2.046366141732284
 20
4.654393700787402
 30
0.0
 10
2.046366141732284
 20
4.654393700787402
 30
0.0
 10
2.046366141732284
 20
4.654393700787402
 30
0.0
 10
2.046366141732284
 20
4.684665354330709
 30
0.0
 10
2.066350393700787
 20
4.701523622047244
 30
0.0
 10
2.098216535433071
 20
4.701523622047244
 30
0.0
 10
2.098216535433071
 20
4.701523622047244
 30
0.0
 10
2.098216535433071
 20
4.701523622047244
 30
0.0
 10
2.923122047244095
 20
4.701523622047244
 30
0.0
 10
2.923122047244095
 20
4.701523622047244
 30
0.0
 10
2.923122047244095
 20
4.701523622047244
 30
0.0
 10
2.952055118110236
 20
4.701523622047244
 30
0.0
 10
2.965543307086614
 20
4.679094488188976
 30
0.0
 10
2.965543307086614
 20
4.649681102362205
 30
0.0
 10
2.965543307086614
 20
4.649681102362205
 30
0.0
 10
2.965543307086614
 20
4.649681102362205
 30
0.0
 10
2.965543307086614
 20
4.107716535433071
 30
0.0
 10
2.965543307086614
 20
4.107716535433071
 30
0.0
 10
2.965543307086614
 20
4.107716535433071
 30
0.0
 10
2.965543307086614
 20
4.078232283464567
 30
0.0
 10
2.939405511811024
 20
4.060586614173229
 30
0.0
 10
2.90898031496063
 20
4.060586614173229
 30
0.0
 10
2.90898031496063
 20
4.060586614173229
 30
0.0
 10
2.90898031496063
 20
4.060586614173229
 30
0.0
 10
2.112358267716536
 20
4.060586614173229
 30
0.0
 10
2.112358267716536
 20
4.060586614173229
 30
0.0
 10
2.112358267716536
 20
4.060586614173229
 30
0.0
 10
2.07661811023622
 20
4.060586614173229
 30
0.0
 10
2.046366141732284
 20
4.072811023622047
 30
0.0
 10
2.046366141732284
 20
4.107716535433071
 30
0.0
  0
SPLINE
  5
36
330
1F
100
AcDbEntity
  8
Layer 1
 62
   176
100
AcDbSpline
210
0.0
220
0.0
230
1.0
 70
    11
 71
     3
 72
    72
 73
    68
 74
     0
 42
0.0000000001
 43
0.0000000001
 40
0.0
 40
0.0
 40
0.0
 40
0.0
 40
0.0588235294117647
 40
0.0588235294117647
 40
0.0588235294117647
 40
0.0588235294117647
 40
0.1176470588235294
 40
0.1176470588235294
 40
0.1176470588235294
 40
0.1176470588235294
 40
0.1764705882352941
 40
0.1764705882352941
 40
0.1764705882352941
 40
0.1764705882352941
 40
0.2352941176470588
 40
0.2352941176470588
 40
0.2352941176470588
 40
0.2352941176470588
 40
0.2941176470588235
 40
0.2941176470588235
 40
0.2941176470588235
 40
0.2941176470588235
 40
0.3529411764705883
 40
0.3529411764705883
 40
0.3529411764705883
 40
0.3529411764705883
 40
0.411764705882353
 40
0.411764705882353
 40
0.411764705882353
 40
0.411764705882353
 40
0.4705882352941177
 40
0.4705882352941177
 40
0.4705882352941177
 40
0.4705882352941177
 40
0.5294117647058824
 40
0.5294117647058824
 40
0.5294117647058824
 40
0.5294117647058824
 40
0.5882352941176471
 40
0.5882352941176471
 40
0.5882352941176471
 40
0.5882352941176471
 40
0.6470588235294118
 40
0.6470588235294118
 40
0.6470588235294118
 40
0.6470588235294118
 40
0.7058823529411765
 40
0.7058823529411765
 40
0.7058823529411765
 40
0.7058823529411765
 40
0.7647058823529412
 40
0.7647058823529412
 40
0.7647058823529412
 40
0.7647058823529412
 40
0.823529411764706
 40
0.823529411764706
 40
0.823529411764706
 40
0.823529411764706
 40
0.8823529411764707
 40
0.8823529411764707
 40
0.8823529411764707
 40
0.8823529411764707
 40
0.9411764705882354
 40
0.9411764705882354
 40
0.9411764705882354
 40
0.9411764705882354
 40
1.0
 40
1.0
 40
1.0
 40
1.0
 10
1.985086614173228
 20
5.267051181102363
 30
0.0
 10
1.980661417322835
 20
5.248059055118111
 30
0.0
 10
1.970944881889764
 20
5.243503937007874
 30
0.0
 10
1.970944881889764
 20
5.224637795275591
 30
0.0
 10
1.970944881889764
 20
5.224637795275591
 30
0.0
 10
1.970944881889764
 20
5.224637795275591
 30
0.0
 10
1.970944881889764
 20
3.160452755905512
 30
0.0
 10
1.970944881889764
 20
3.160452755905512
 30
0.0
 10
1.970944881889764
 20
3.160452755905512
 30
0.0
 10
1.970944881889764
 20
3.160452755905512
 30
0.0
 10
2.098216535433071
 20
3.160452755905512
 30
0.0
 10
2.098216535433071
 20
3.160452755905512
 30
0.0
 10
2.098216535433071
 20
3.160452755905512
 30
0.0
 10
2.098216535433071
 20
3.160452755905512
 30
0.0
 10
2.098216535433071
 20
2.802283464566929
 30
0.0
 10
2.098216535433071
 20
2.802283464566929
 30
0.0
 10
2.098216535433071
 20
2.802283464566929
 30
0.0
 10
2.098216535433071
 20
2.802283464566929
 30
0.0
 10
2.338618110236221
 20
2.802283464566929
 30
0.0
 10
2.338618110236221
 20
2.802283464566929
 30
0.0
 10
2.338618110236221
 20
2.802283464566929
 30
0.0
 10
2.338618110236221
 20
2.802283464566929
 30
0.0
 10
2.338618110236221
 20
3.160452755905512
 30
0.0
 10
2.338618110236221
 20
3.160452755905512
 30
0.0
 10
2.338618110236221
 20
3.160452755905512
 30
0.0
 10
2.338618110236221
 20
3.160452755905512
 30
0.0
 10
3.630177165354331
 20
3.160452755905512
 30
0.0
 10
3.630177165354331
 20
3.160452755905512
 30
0.0
 10
3.630177165354331
 20
3.160452755905512
 30
0.0
 10
3.630177165354331
 20
3.160452755905512
 30
0.0
 10
3.630177165354331
 20
2.797570866141732
 30
0.0
 10
3.630177165354331
 20
2.797570866141732
 30
0.0
 10
3.630177165354331
 20
2.797570866141732
 30
0.0
 10
3.630177165354331
 20
2.797570866141732
 30
0.0
 10
3.861149606299213
 20
2.797570866141732
 30
0.0
 10
3.861149606299213
 20
2.797570866141732
 30
0.0
 10
3.861149606299213
 20
2.797570866141732
 30
0.0
 10
3.872011811023622
 20
2.797570866141732
 30
0.0
 10
3.875291338582677
 20
2.800850393700788
 30
0.0
 10
3.875291338582677
 20
2.811708661417323
 30
0.0
 10
3.875291338582677
 20
2.811708661417323
 30
0.0
 10
3.875291338582677
 20
2.811708661417323
 30
0.0
 10
3.875291338582677
 20
3.160452755905512
 30
0.0
 10
3.875291338582677
 20
3.160452755905512
 30
0.0
 10
3.875291338582677
 20
3.160452755905512
 30
0.0
 10
3.875291338582677
 20
3.160452755905512
 30
0.0
 10
3.997850393700788
 20
3.160452755905512
 30
0.0
 10
3.997850393700788
 20
3.160452755905512
 30
0.0
 10
3.997850393700788
 20
3.160452755905512
 30
0.0
 10
3.997850393700788
 20
3.160452755905512
 30
0.0
 10
3.997850393700788
 20
5.224637795275591
 30
0.0
 10
3.997850393700788
 20
5.224637795275591
 30
0.0
 10
3.997850393700788
 20
5.224637795275591
 30
0.0
 10
3.997850393700788
 20
5.246476377952756
 30
0.0
 10
3.989051181102362
 20
5.238814960629921
 30
0.0
 10
3.98842125984252
 20
5.267051181102363
 30
0.0
 10
3.98842125984252
 20
5.267051181102363
 30
0.0
 10
3.963397637795276
 20
5.269133858267717
 30
0.0
 10
3.955732283464567
 20
5.281192913385827
 30
0.0
 10
3.936570866141732
 20
5.281192913385827
 30
0.0
 10
3.936570866141732
 20
5.281192913385827
 30
0.0
 10
3.936570866141732
 20
5.281192913385827
 30
0.0
 10
2.032224409448819
 20
5.281192913385827
 30
0.0
 10
2.032224409448819
 20
5.281192913385827
 30
0.0
 10
2.032224409448819
 20
5.281192913385827
 30
0.0
 10
2.009409448818898
 20
5.281192913385827
 30
0.0
 10
2.011098425196851
 20
5.269216535433071
 30
0.0
 10
1.985086614173228
 20
5.267051181102363
 30
0.0
  0
SPLINE
  5
37
330
1F
100
AcDbEntity
  8
Layer 1
 62
     2
100
AcDbSpline
210
0.0
220
0.0
230
1.0
 70
    11
 71
     3
 72
    44
 73
    40
 74
     0
 42
0.0000000001
 43
0.0000000001
 40
0.0
 40
0.0
 40
0.0
 40
0.0
 40
0.1
 40
0.1
 40
0.1
 40
0.1
 40
0.2
 40
0.2
 40
0.2
 40
0.2
 40
0.3
 40
0.3
 40
0.3
 40
0.3
 40
0.4
 40
0.4
 40
0.4
 40
0.4
 40
0.5
 40
0.5
 40
0.5
 40
0.5
 40
0.6
 40
0.6
 40
0.6
 40
0.6
 40
0.7
 40
0.7
 40
0.7
 40
0.7
 40
0.7999999999999999
 40
0.7999999999999999
 40
0.7999999999999999
 40
0.7999999999999999
 40
0.8999999999999999
 40
0.8999999999999999
 40
0.8999999999999999
 40
0.8999999999999999
 40
1.0
 40
1.0
 40
1.0
 40
1.0
 10
-3.487547244094488
 20
4.173692913385827
 30
0.0
 10
-3.487547244094488
 20
4.173692913385827
 30
0.0
 10
-3.487547244094488
 20
4.164271653543307
 30
0.0
 10
-3.487547244094488
 20
4.164271653543307
 30
0.0
 10
-3.487547244094488
 20
4.164271653543307
 30
0.0
 10
-3.487547244094488
 20
4.14346062992126
 30
0.0
 10
-3.451291338582677
 20
4.126566929133858
 30
0.0
 10
-3.426267716535433
 20
4.126566929133858
 30
0.0
 10
-3.426267716535433
 20
4.126566929133858
 30
0.0
 10
-3.426267716535433
 20
4.126566929133858
 30
0.0
 10
-3.190582677165355
 20
4.126566929133858
 30
0.0
 10
-3.190582677165355
 20
4.126566929133858
 30
0.0
 10
-3.190582677165355
 20
4.126566929133858
 30
0.0
 10
-3.157582677165355
 20
4.126566929133858
 30
0.0
 10
-3.138728346456693
 20
4.153751968503937
 30
0.0
 10
-3.138728346456693
 20
4.187834645669292
 30
0.0
 10
-3.138728346456693
 20
4.187834645669292
 30
0.0
 10
-3.138728346456693
 20
4.187834645669292
 30
0.0
 10
-3.138728346456693
 20
4.649681102362205
 30
0.0
 10
-3.138728346456693
 20
4.649681102362205
 30
0.0
 10
-3.138728346456693
 20
4.649681102362205
 30
0.0
 10
-3.138728346456693
 20
4.683763779527559
 30
0.0
 10
-3.157582677165355
 20
4.710948818897638
 30
0.0
 10
-3.190582677165355
 20
4.710948818897638
 30
0.0
 10
-3.190582677165355
 20
4.710948818897638
 30
0.0
 10
-3.190582677165355
 20
4.710948818897638
 30
0.0
 10
-3.280141732283465
 20
4.710948818897638
 30
0.0
 10
-3.280141732283465
 20
4.710948818897638
 30
0.0
 10
-3.280141732283465
 20
4.710948818897638
 30
0.0
 10
-3.326224409448819
 20
4.710948818897638
 30
0.0
 10
-3.338488188976378
 20
4.637299212598426
 30
0.0
 10
-3.351444881889764
 20
4.59844094488189
 30
0.0
 10
-3.351444881889764
 20
4.59844094488189
 30
0.0
 10
-3.366952755905512
 20
4.551948818897638
 30
0.0
 10
-3.383287401574803
 20
4.50340157480315
 30
0.0
 10
-3.398590551181103
 20
4.457062992125985
 30
0.0
 10
-3.398590551181103
 20
4.457062992125985
 30
0.0
 10
-3.410700787401575
 20
4.420389763779528
 30
0.0
 10
-3.487547244094488
 20
4.195374015748032
 30
0.0
 10
-3.487547244094488
 20
4.173692913385827
 30
0.0
  0
SPLINE
  5
38
330
1F
100
AcDbEntity
  8
Layer 1
 62
     2
100
AcDbSpline
210
0.0
220
0.0
230
1.0
 70
    11
 71
     3
 72
    36
 73
    32
 74
     0
 42
0.0000000001
 43
0.0000000001
 40
0.0
 40
0.0
 40
0.0
 40
0.0
 40
0.125
 40
0.125
 40
0.125
 40
0.125
 40
0.25
 40
0.25
 40
0.25
 40
0.25
 40
0.375
 40
0.375
 40
0.375
 40
0.375
 40
0.5
 40
0.5
 40
0.5
 40
0.5
 40
0.625
 40
0.625
 40
0.625
 40
0.625
 40
0.75
 40
0.75
 40
0.75
 40
0.75
 40
0.875
 40
0.875
 40
0.875
 40
0.875
 40
1.0
 40
1.0
 40
1.0
 40
1.0
 10
-2.992606299212599
 20
4.654393700787402
 30
0.0
 10
-2.992606299212599
 20
4.654393700787402
 30
0.0
 10
-2.992606299212599
 20
4.183122047244095
 30
0.0
 10
-2.992606299212599
 20
4.183122047244095
 30
0.0
 10
-2.992606299212599
 20
4.183122047244095
 30
0.0
 10
-2.992606299212599
 20
4.147775590551182
 30
0.0
 10
-2.969625984251969
 20
4.117141732283465
 30
0.0
 10
-2.93603937007874
 20
4.117141732283465
 30
0.0
 10
-2.93603937007874
 20
4.117141732283465
 30
0.0
 10
-2.93603937007874
 20
4.117141732283465
 30
0.0
 10
-2.375106299212598
 20
4.117141732283465
 30
0.0
 10
-2.375106299212598
 20
4.117141732283465
 30
0.0
 10
-2.375106299212598
 20
4.117141732283465
 30
0.0
 10
-2.354074803149607
 20
4.117141732283465
 30
0.0
 10
-2.323255905511811
 20
4.143748031496063
 30
0.0
 10
-2.323255905511811
 20
4.159555118110236
 30
0.0
 10
-2.323255905511811
 20
4.159555118110236
 30
0.0
 10
-2.323255905511811
 20
4.159555118110236
 30
0.0
 10
-2.323255905511811
 20
4.668535433070867
 30
0.0
 10
-2.323255905511811
 20
4.668535433070867
 30
0.0
 10
-2.323255905511811
 20
4.668535433070867
 30
0.0
 10
-2.323255905511811
 20
4.693838582677166
 30
0.0
 10
-2.349795275590551
 20
4.720374015748032
 30
0.0
 10
-2.375106299212598
 20
4.720374015748032
 30
0.0
 10
-2.375106299212598
 20
4.720374015748032
 30
0.0
 10
-2.375106299212598
 20
4.720374015748032
 30
0.0
 10
-2.93603937007874
 20
4.720374015748032
 30
0.0
 10
-2.93603937007874
 20
4.720374015748032
 30
0.0
 10
-2.93603937007874
 20
4.720374015748032
 30
0.0
 10
-2.969625984251969
 20
4.720374015748032
 30
0.0
 10
-2.992606299212599
 20
4.689740157480316
 30
0.0
 10
-2.992606299212599
 20
4.654393700787402
 30
0.0
  0
SPLINE
  5
39
330
1F
100
AcDbEntity
  8
Layer 1
 62
     2
100
AcDbSpline
210
0.0
220
0.0
230
1.0
 70
    11
 71
     3
 72
    36
 73
    32
 74
     0
 42
0.0000000001
 43
0.0000000001
 40
0.0
 40
0.0
 40
0.0
 40
0.0
 40
0.125
 40
0.125
 40
0.125
 40
0.125
 40
0.25
 40
0.25
 40
0.25
 40
0.25
 40
0.375
 40
0.375
 40
0.375
 40
0.375
 40
0.5
 40
0.5
 40
0.5
 40
0.5
 40
0.625
 40
0.625
 40
0.625
 40
0.625
 40
0.75
 40
0.75
 40
0.75
 40
0.75
 40
0.875
 40
0.875
 40
0.875
 40
0.875
 40
1.0
 40
1.0
 40
1.0
 40
1.0
 10
2.046366141732284
 20
4.107716535433071
 30
0.0
 10
2.046366141732284
 20
4.072811023622047
 30
0.0
 10
2.07661811023622
 20
4.060586614173229
 30
0.0
 10
2.112358267716536
 20
4.060586614173229
 30
0.0
 10
2.112358267716536
 20
4.060586614173229
 30
0.0
 10
2.112358267716536
 20
4.060586614173229
 30
0.0
 10
2.90898031496063
 20
4.060586614173229
 30
0.0
 10
2.90898031496063
 20
4.060586614173229
 30
0.0
 10
2.90898031496063
 20
4.060586614173229
 30
0.0
 10
2.939405511811024
 20
4.060586614173229
 30
0.0
 10
2.965543307086614
 20
4.078232283464567
 30
0.0
 10
2.965543307086614
 20
4.107716535433071
 30
0.0
 10
2.965543307086614
 20
4.107716535433071
 30
0.0
 10
2.965543307086614
 20
4.107716535433071
 30
0.0
 10
2.965543307086614
 20
4.649681102362205
 30
0.0
 10
2.965543307086614
 20
4.649681102362205
 30
0.0
 10
2.965543307086614
 20
4.649681102362205
 30
0.0
 10
2.965543307086614
 20
4.679094488188976
 30
0.0
 10
2.952055118110236
 20
4.701523622047244
 30
0.0
 10
2.923122047244095
 20
4.701523622047244
 30
0.0
 10
2.923122047244095
 20
4.701523622047244
 30
0.0
 10
2.923122047244095
 20
4.701523622047244
 30
0.0
 10
2.098216535433071
 20
4.701523622047244
 30
0.0
 10
2.098216535433071
 20
4.701523622047244
 30
0.0
 10
2.098216535433071
 20
4.701523622047244
 30
0.0
 10
2.066350393700787
 20
4.701523622047244
 30
0.0
 10
2.046366141732284
 20
4.684665354330709
 30
0.0
 10
2.046366141732284
 20
4.654393700787402
 30
0.0
 10
2.046366141732284
 20
4.654393700787402
 30
0.0
 10
2.046366141732284
 20
4.654393700787402
 30
0.0
 10
2.046366141732284
 20
4.107716535433071
 30
0.0
 10
2.046366141732284
 20
4.107716535433071
 30
0.0
  0
SPLINE
  5
3A
330
1F
100
AcDbEntity
  8
Layer 1
 62
     2
100
AcDbSpline
210
0.0
220
0.0
230
1.0
 70
    11
 71
     3
 72
    36
 73
    32
 74
     0
 42
0.0000000001
 43
0.0000000001
 40
0.0
 40
0.0
 40
0.0
 40
0.0
 40
0.125
 40
0.125
 40
0.125
 40
0.125
 40
0.25
 40
0.25
 40
0.25
 40
0.25
 40
0.375
 40
0.375
 40
0.375
 40
0.375
 40
0.5
 40
0.5
 40
0.5
 40
0.5
 40
0.625
 40
0.625
 40
0.625
 40
0.625
 40
0.75
 40
0.75
 40
0.75
 40
0.75
 40
0.875
 40
0.875
 40
0.875
 40
0.875
 40
1.0
 40
1.0
 40
1.0
 40
1.0
 10
3.036248031496063
 20
4.112429133858268
 30
0.0
 10
3.036248031496063
 20
4.077200787401575
 30
0.0
 10
3.058161417322835
 20
4.060586614173229
 30
0.0
 10
3.092814960629922
 20
4.060586614173229
 30
0.0
 10
3.092814960629922
 20
4.060586614173229
 30
0.0
 10
3.092814960629922
 20
4.060586614173229
 30
0.0
 10
3.89886220472441
 20
4.060586614173229
 30
0.0
 10
3.89886220472441
 20
4.060586614173229
 30
0.0
 10
3.89886220472441
 20
4.060586614173229
 30
0.0
 10
3.927114173228347
 20
4.060586614173229
 30
0.0
 10
3.955425196850394
 20
4.08346062992126
 30
0.0
 10
3.955425196850394
 20
4.103003937007874
 30
0.0
 10
3.955425196850394
 20
4.103003937007874
 30
0.0
 10
3.955425196850394
 20
4.103003937007874
 30
0.0
 10
3.955425196850394
 20
4.654393700787402
 30
0.0
 10
3.955425196850394
 20
4.654393700787402
 30
0.0
 10
3.955425196850394
 20
4.654393700787402
 30
0.0
 10
3.955425196850394
 20
4.684665354330709
 30
0.0
 10
3.93544094488189
 20
4.701523622047244
 30
0.0
 10
3.903574803149606
 20
4.701523622047244
 30
0.0
 10
3.903574803149606
 20
4.701523622047244
 30
0.0
 10
3.903574803149606
 20
4.701523622047244
 30
0.0
 10
3.088102362204725
 20
4.701523622047244
 30
0.0
 10
3.088102362204725
 20
4.701523622047244
 30
0.0
 10
3.088102362204725
 20
4.701523622047244
 30
0.0
 10
3.052763779527559
 20
4.701523622047244
 30
0.0
 10
3.036248031496063
 20
4.685011811023622
 30
0.0
 10
3.036248031496063
 20
4.649681102362205
 30
0.0
 10
3.036248031496063
 20
4.649681102362205
 30
0.0
 10
3.036248031496063
 20
4.649681102362205
 30
0.0
 10
3.036248031496063
 20
4.112429133858268
 30
0.0
 10
3.036248031496063
 20
4.112429133858268
 30
0.0
  0
SPLINE
  5
3B
330
1F
100
AcDbEntity
  8
Layer 1
 62
     1
100
AcDbSpline
210
0.0
220
0.0
230
1.0
 70
    11
 71
     3
 72
    20
 73
    16
 74
     0
 42
0.0000000001
 43
0.0000000001
 40
0.0
 40
0.0
 40
0.0
 40
0.0
 40
0.25
 40
0.25
 40
0.25
 40
0.25
 40
0.5
 40
0.5
 40
0.5
 40
0.5
 40
0.75
 40
0.75
 40
0.75
 40
0.75
 40
1.0
 40
1.0
 40
1.0
 40
1.0
 10
2.69686220472441
 20
3.63644094488189
 30
0.0
 10
2.69686220472441
 20
3.63644094488189
 30
0.0
 10
2.824129921259843
 20
3.63644094488189
 30
0.0
 10
2.824129921259843
 20
3.63644094488189
 30
0.0
 10
2.824129921259843
 20
3.63644094488189
 30
0.0
 10
2.824129921259843
 20
3.63644094488189
 30
0.0
 10
2.824129921259843
 20
3.688279527559055
 30
0.0
 10
2.824129921259843
 20
3.688279527559055
 30
0.0
 10
2.824129921259843
 20
3.688279527559055
 30
0.0
 10
2.824129921259843
 20
3.688279527559055
 30
0.0
 10
2.69686220472441
 20
3.688279527559055
 30
0.0
 10
2.69686220472441
 20
3.688279527559055
 30
0.0
 10
2.69686220472441
 20
3.688279527559055
 30
0.0
 10
2.69686220472441
 20
3.688279527559055
 30
0.0
 10
2.69686220472441
 20
3.63644094488189
 30
0.0
 10
2.69686220472441
 20
3.63644094488189
 30
0.0
  0
SPLINE
  5
3C
330
1F
100
AcDbEntity
  8
Layer 1
 62
     1
100
AcDbSpline
210
0.0
220
0.0
230
1.0
 70
    11
 71
     3
 72
    20
 73
    16
 74
     0
 42
0.0000000001
 43
0.0000000001
 40
0.0
 40
0.0
 40
0.0
 40
0.0
 40
0.25
 40
0.25
 40
0.25
 40
0.25
 40
0.5
 40
0.5
 40
0.5
 40
0.5
 40
0.75
 40
0.75
 40
0.75
 40
0.75
 40
1.0
 40
1.0
 40
1.0
 40
1.0
 10
2.923122047244095
 20
3.63644094488189
 30
0.0
 10
2.923122047244095
 20
3.63644094488189
 30
0.0
 10
3.045677165354331
 20
3.63644094488189
 30
0.0
 10
3.045677165354331
 20
3.63644094488189
 30
0.0
 10
3.045677165354331
 20
3.63644094488189
 30
0.0
 10
3.045677165354331
 20
3.63644094488189
 30
0.0
 10
3.045677165354331
 20
3.688279527559055
 30
0.0
 10
3.045677165354331
 20
3.688279527559055
 30
0.0
 10
3.045677165354331
 20
3.688279527559055
 30
0.0
 10
3.045677165354331
 20
3.688279527559055
 30
0.0
 10
2.923122047244095
 20
3.688279527559055
 30
0.0
 10
2.923122047244095
 20
3.688279527559055
 30
0.0
 10
2.923122047244095
 20
3.688279527559055
 30
0.0
 10
2.923122047244095
 20
3.688279527559055
 30
0.0
 10
2.923122047244095
 20
3.63644094488189
 30
0.0
 10
2.923122047244095
 20
3.63644094488189
 30
0.0
  0
SPLINE
  5
3D
330
1F
100
AcDbEntity
  8
Layer 1
 62
     1
100
AcDbSpline
210
0.0
220
0.0
230
1.0
 70
    11
 71
     3
 72
    20
 73
    16
 74
     0
 42
0.0000000001
 43
0.0000000001
 40
0.0
 40
0.0
 40
0.0
 40
0.0
 40
0.25
 40
0.25
 40
0.25
 40
0.25
 40
0.5
 40
0.5
 40
0.5
 40
0.5
 40
0.75
 40
0.75
 40
0.75
 40
0.75
 40
1.0
 40
1.0
 40
1.0
 40
1.0
 10
3.149377952755906
 20
3.63644094488189
 30
0.0
 10
3.149377952755906
 20
3.63644094488189
 30
0.0
 10
3.271937007874016
 20
3.63644094488189
 30
0.0
 10
3.271937007874016
 20
3.63644094488189
 30
0.0
 10
3.271937007874016
 20
3.63644094488189
 30
0.0
 10
3.271937007874016
 20
3.63644094488189
 30
0.0
 10
3.271937007874016
 20
3.688279527559055
 30
0.0
 10
3.271937007874016
 20
3.688279527559055
 30
0.0
 10
3.271937007874016
 20
3.688279527559055
 30
0.0
 10
3.271937007874016
 20
3.688279527559055
 30
0.0
 10
3.149377952755906
 20
3.688279527559055
 30
0.0
 10
3.149377952755906
 20
3.688279527559055
 30
0.0
 10
3.149377952755906
 20
3.688279527559055
 30
0.0
 10
3.149377952755906
 20
3.688279527559055
 30
0.0
 10
3.149377952755906
 20
3.63644094488189
 30
0.0
 10
3.149377952755906
 20
3.63644094488189
 30
0.0
  0
SPLINE
  5
3E
330
1F
100
AcDbEntity
  8
Layer 1
 62
     1
100
AcDbSpline
210
0.0
220
0.0
230
1.0
 70
    11
 71
     3
 72
    20
 73
    16
 74
     0
 42
0.0000000001
 43
0.0000000001
 40
0.0
 40
0.0
 40
0.0
 40
0.0
 40
0.25
 40
0.25
 40
0.25
 40
0.25
 40
0.5
 40
0.5
 40
0.5
 40
0.5
 40
0.75
 40
0.75
 40
0.75
 40
0.75
 40
1.0
 40
1.0
 40
1.0
 40
1.0
 10
2.1265
 20
3.631728346456693
 30
0.0
 10
2.1265
 20
3.631728346456693
 30
0.0
 10
2.253771653543307
 20
3.631728346456693
 30
0.0
 10
2.253771653543307
 20
3.631728346456693
 30
0.0
 10
2.253771653543307
 20
3.631728346456693
 30
0.0
 10
2.253771653543307
 20
3.631728346456693
 30
0.0
 10
2.253771653543307
 20
3.692996062992126
 30
0.0
 10
2.253771653543307
 20
3.692996062992126
 30
0.0
 10
2.253771653543307
 20
3.692996062992126
 30
0.0
 10
2.253771653543307
 20
3.692996062992126
 30
0.0
 10
2.1265
 20
3.692996062992126
 30
0.0
 10
2.1265
 20
3.692996062992126
 30
0.0
 10
2.1265
 20
3.692996062992126
 30
0.0
 10
2.1265
 20
3.692996062992126
 30
0.0
 10
2.1265
 20
3.631728346456693
 30
0.0
 10
2.1265
 20
3.631728346456693
 30
0.0
  0
SPLINE
  5
3F
330
1F
100
AcDbEntity
  8
Layer 1
 62
     1
100
AcDbSpline
210
0.0
220
0.0
230
1.0
 70
    11
 71
     3
 72
    20
 73
    16
 74
     0
 42
0.0000000001
 43
0.0000000001
 40
0.0
 40
0.0
 40
0.0
 40
0.0
 40
0.25
 40
0.25
 40
0.25
 40
0.25
 40
0.5
 40
0.5
 40
0.5
 40
0.5
 40
0.75
 40
0.75
 40
0.75
 40
0.75
 40
1.0
 40
1.0
 40
1.0
 40
1.0
 10
3.710311023622047
 20
3.631728346456693
 30
0.0
 10
3.710311023622047
 20
3.631728346456693
 30
0.0
 10
3.842295275590551
 20
3.631728346456693
 30
0.0
 10
3.842295275590551
 20
3.631728346456693
 30
0.0
 10
3.842295275590551
 20
3.631728346456693
 30
0.0
 10
3.842295275590551
 20
3.631728346456693
 30
0.0
 10
3.842295275590551
 20
3.692996062992126
 30
0.0
 10
3.842295275590551
 20
3.692996062992126
 30
0.0
 10
3.842295275590551
 20
3.692996062992126
 30
0.0
 10
3.842295275590551
 20
3.692996062992126
 30
0.0
 10
3.710311023622047
 20
3.692996062992126
 30
0.0
 10
3.710311023622047
 20
3.692996062992126
 30
0.0
 10
3.710311023622047
 20
3.692996062992126
 30
0.0
 10
3.710311023622047
 20
3.692996062992126
 30
0.0
 10
3.710311023622047
 20
3.631728346456693
 30
0.0
 10
3.710311023622047
 20
3.631728346456693
 30
0.0
  0
SPLINE
  5
40
330
1F
100
AcDbEntity
  8
Layer 1
 62
   251
100
AcDbSpline
210
0.0
220
0.0
230
1.0
 70
    11
 71
     3
 72
    20
 73
    16
 74
     0
 42
0.0000000001
 43
0.0000000001
 40
0.0
 40
0.0
 40
0.0
 40
0.0
 40
0.25
 40
0.25
 40
0.25
 40
0.25
 40
0.5
 40
0.5
 40
0.5
 40
0.5
 40
0.75
 40
0.75
 40
0.75
 40
0.75
 40
1.0
 40
1.0
 40
1.0
 40
1.0
 10
3.149377952755906
 20
3.688279527559055
 30
0.0
 10
3.149377952755906
 20
3.688279527559055
 30
0.0
 10
3.271937007874016
 20
3.688279527559055
 30
0.0
 10
3.271937007874016
 20
3.688279527559055
 30
0.0
 10
3.271937007874016
 20
3.688279527559055
 30
0.0
 10
3.271937007874016
 20
3.688279527559055
 30
0.0
 10
3.271937007874016
 20
3.63644094488189
 30
0.0
 10
3.271937007874016
 20
3.63644094488189
 30
0.0
 10
3.271937007874016
 20
3.63644094488189
 30
0.0
 10
3.271937007874016
 20
3.63644094488189
 30
0.0
 10
3.149377952755906
 20
3.63644094488189
 30
0.0
 10
3.149377952755906
 20
3.63644094488189
 30
0.0
 10
3.149377952755906
 20
3.63644094488189
 30
0.0
 10
3.149377952755906
 20
3.63644094488189
 30
0.0
 10
3.149377952755906
 20
3.688279527559055
 30
0.0
 10
3.149377952755906
 20
3.688279527559055
 30
0.0
  0
SPLINE
  5
41
330
1F
100
AcDbEntity
  8
Layer 1
 62
   251
100
AcDbSpline
210
0.0
220
0.0
230
1.0
 70
    11
 71
     3
 72
    20
 73
    16
 74
     0
 42
0.0000000001
 43
0.0000000001
 40
0.0
 40
0.0
 40
0.0
 40
0.0
 40
0.25
 40
0.25
 40
0.25
 40
0.25
 40
0.5
 40
0.5
 40
0.5
 40
0.5
 40
0.75
 40
0.75
 40
0.75
 40
0.75
 40
1.0
 40
1.0
 40
1.0
 40
1.0
 10
2.923122047244095
 20
3.688279527559055
 30
0.0
 10
2.923122047244095
 20
3.688279527559055
 30
0.0
 10
3.045677165354331
 20
3.688279527559055
 30
0.0
 10
3.045677165354331
 20
3.688279527559055
 30
0.0
 10
3.045677165354331
 20
3.688279527559055
 30
0.0
 10
3.045677165354331
 20
3.688279527559055
 30
0.0
 10
3.045677165354331
 20
3.63644094488189
 30
0.0
 10
3.045677165354331
 20
3.63644094488189
 30
0.0
 10
3.045677165354331
 20
3.63644094488189
 30
0.0
 10
3.045677165354331
 20
3.63644094488189
 30
0.0
 10
2.923122047244095
 20
3.63644094488189
 30
0.0
 10
2.923122047244095
 20
3.63644094488189
 30
0.0
 10
2.923122047244095
 20
3.63644094488189
 30
0.0
 10
2.923122047244095
 20
3.63644094488189
 30
0.0
 10
2.923122047244095
 20
3.688279527559055
 30
0.0
 10
2.923122047244095
 20
3.688279527559055
 30
0.0
  0
SPLINE
  5
42
330
1F
100
AcDbEntity
  8
Layer 1
 62
   251
100
AcDbSpline
210
0.0
220
0.0
230
1.0
 70
    11
 71
     3
 72
    20
 73
    16
 74
     0
 42
0.0000000001
 43
0.0000000001
 40
0.0
 40
0.0
 40
0.0
 40
0.0
 40
0.25
 40
0.25
 40
0.25
 40
0.25
 40
0.5
 40
0.5
 40
0.5
 40
0.5
 40
0.75
 40
0.75
 40
0.75
 40
0.75
 40
1.0
 40
1.0
 40
1.0
 40
1.0
 10
2.69686220472441
 20
3.688279527559055
 30
0.0
 10
2.69686220472441
 20
3.688279527559055
 30
0.0
 10
2.824129921259843
 20
3.688279527559055
 30
0.0
 10
2.824129921259843
 20
3.688279527559055
 30
0.0
 10
2.824129921259843
 20
3.688279527559055
 30
0.0
 10
2.824129921259843
 20
3.688279527559055
 30
0.0
 10
2.824129921259843
 20
3.63644094488189
 30
0.0
 10
2.824129921259843
 20
3.63644094488189
 30
0.0
 10
2.824129921259843
 20
3.63644094488189
 30
0.0
 10
2.824129921259843
 20
3.63644094488189
 30
0.0
 10
2.69686220472441
 20
3.63644094488189
 30
0.0
 10
2.69686220472441
 20
3.63644094488189
 30
0.0
 10
2.69686220472441
 20
3.63644094488189
 30
0.0
 10
2.69686220472441
 20
3.63644094488189
 30
0.0
 10
2.69686220472441
 20
3.688279527559055
 30
0.0
 10
2.69686220472441
 20
3.688279527559055
 30
0.0
  0
SPLINE
  5
43
330
1F
100
AcDbEntity
  8
Layer 1
 62
   251
100
AcDbSpline
210
0.0
220
0.0
230
1.0
 70
    11
 71
     3
 72
    20
 73
    16
 74
     0
 42
0.0000000001
 43
0.0000000001
 40
0.0
 40
0.0
 40
0.0
 40
0.0
 40
0.25
 40
0.25
 40
0.25
 40
0.25
 40
0.5
 40
0.5
 40
0.5
 40
0.5
 40
0.75
 40
0.75
 40
0.75
 40
0.75
 40
1.0
 40
1.0
 40
1.0
 40
1.0
 10
2.593157480314961
 20
3.627015748031496
 30
0.0
 10
2.593157480314961
 20
3.627015748031496
 30
0.0
 10
3.375637795275591
 20
3.627015748031496
 30
0.0
 10
3.375637795275591
 20
3.627015748031496
 30
0.0
 10
3.375637795275591
 20
3.627015748031496
 30
0.0
 10
3.375637795275591
 20
3.627015748031496
 30
0.0
 10
3.375637795275591
 20
3.697708661417323
 30
0.0
 10
3.375637795275591
 20
3.697708661417323
 30
0.0
 10
3.375637795275591
 20
3.697708661417323
 30
0.0
 10
3.375637795275591
 20
3.697708661417323
 30
0.0
 10
2.593157480314961
 20
3.697708661417323
 30
0.0
 10
2.593157480314961
 20
3.697708661417323
 30
0.0
 10
2.593157480314961
 20
3.697708661417323
 30
0.0
 10
2.593157480314961
 20
3.697708661417323
 30
0.0
 10
2.593157480314961
 20
3.627015748031496
 30
0.0
 10
2.593157480314961
 20
3.627015748031496
 30
0.0
  0
SPLINE
  5
44
330
1F
100
AcDbEntity
  8
Layer 1
 62
     1
100
AcDbSpline
210
0.0
220
0.0
230
1.0
 70
    11
 71
     3
 72
    32
 73
    28
 74
     0
 42
0.0000000001
 43
0.0000000001
 40
0.0
 40
0.0
 40
0.0
 40
0.0
 40
0.1428571428571429
 40
0.1428571428571429
 40
0.1428571428571429
 40
0.1428571428571429
 40
0.2857142857142857
 40
0.2857142857142857
 40
0.2857142857142857
 40
0.2857142857142857
 40
0.4285714285714286
 40
0.4285714285714286
 40
0.4285714285714286
 40
0.4285714285714286
 40
0.5714285714285714
 40
0.5714285714285714
 40
0.5714285714285714
 40
0.5714285714285714
 40
0.7142857142857142
 40
0.7142857142857142
 40
0.7142857142857142
 40
0.7142857142857142
 40
0.857142857142857
 40
0.857142857142857
 40
0.857142857142857
 40
0.857142857142857
 40
1.0
 40
1.0
 40
1.0
 40
1.0
 10
3.696169291338583
 20
3.466783464566929
 30
0.0
 10
3.696169291338583
 20
3.429090551181103
 30
0.0
 10
3.736503937007874
 20
3.386665354330709
 30
0.0
 10
3.771590551181102
 20
3.386665354330709
 30
0.0
 10
3.771590551181102
 20
3.386665354330709
 30
0.0
 10
3.771590551181102
 20
3.386665354330709
 30
0.0
 10
3.781015748031496
 20
3.386665354330709
 30
0.0
 10
3.781015748031496
 20
3.386665354330709
 30
0.0
 10
3.781015748031496
 20
3.386665354330709
 30
0.0
 10
3.82409842519685
 20
3.386665354330709
 30
0.0
 10
3.861149606299213
 20
3.423708661417323
 30
0.0
 10
3.861149606299213
 20
3.466783464566929
 30
0.0
 10
3.861149606299213
 20
3.466783464566929
 30
0.0
 10
3.861149606299213
 20
3.466783464566929
 30
0.0
 10
3.861149606299213
 20
3.471496062992126
 30
0.0
 10
3.861149606299213
 20
3.471496062992126
 30
0.0
 10
3.861149606299213
 20
3.471496062992126
 30
0.0
 10
3.861149606299213
 20
3.503893700787402
 30
0.0
 10
3.816708661417323
 20
3.542185039370079
 30
0.0
 10
3.785732283464567
 20
3.542185039370079
 30
0.0
 10
3.785732283464567
 20
3.542185039370079
 30
0.0
 10
3.785732283464567
 20
3.542185039370079
 30
0.0
 10
3.771590551181102
 20
3.542185039370079
 30
0.0
 10
3.771590551181102
 20
3.542185039370079
 30
0.0
 10
3.771590551181102
 20
3.542185039370079
 30
0.0
 10
3.738858267716536
 20
3.542185039370079
 30
0.0
 10
3.696169291338583
 20
3.498570866141733
 30
0.0
 10
3.696169291338583
 20
3.466783464566929
 30
0.0
  0
SPLINE
  5
45
330
1F
100
AcDbEntity
  8
Layer 1
 62
     1
100
AcDbSpline
210
0.0
220
0.0
230
1.0
 70
    11
 71
     3
 72
    32
 73
    28
 74
     0
 42
0.0000000001
 43
0.0000000001
 40
0.0
 40
0.0
 40
0.0
 40
0.0
 40
0.1428571428571429
 40
0.1428571428571429
 40
0.1428571428571429
 40
0.1428571428571429
 40
0.2857142857142857
 40
0.2857142857142857
 40
0.2857142857142857
 40
0.2857142857142857
 40
0.4285714285714286
 40
0.4285714285714286
 40
0.4285714285714286
 40
0.4285714285714286
 40
0.5714285714285714
 40
0.5714285714285714
 40
0.5714285714285714
 40
0.5714285714285714
 40
0.7142857142857142
 40
0.7142857142857142
 40
0.7142857142857142
 40
0.7142857142857142
 40
0.857142857142857
 40
0.857142857142857
 40
0.857142857142857
 40
0.857142857142857
 40
1.0
 40
1.0
 40
1.0
 40
1.0
 10
2.112358267716536
 20
3.476208661417323
 30
0.0
 10
2.112358267716536
 20
3.476208661417323
 30
0.0
 10
2.112358267716536
 20
3.466783464566929
 30
0.0
 10
2.112358267716536
 20
3.466783464566929
 30
0.0
 10
2.112358267716536
 20
3.466783464566929
 30
0.0
 10
2.112358267716536
 20
3.423708661417323
 30
0.0
 10
2.149413385826772
 20
3.386665354330709
 30
0.0
 10
2.192492125984252
 20
3.386665354330709
 30
0.0
 10
2.192492125984252
 20
3.386665354330709
 30
0.0
 10
2.192492125984252
 20
3.386665354330709
 30
0.0
 10
2.20192125984252
 20
3.386665354330709
 30
0.0
 10
2.20192125984252
 20
3.386665354330709
 30
0.0
 10
2.20192125984252
 20
3.386665354330709
 30
0.0
 10
2.237007874015748
 20
3.386665354330709
 30
0.0
 10
2.277338582677166
 20
3.429090551181103
 30
0.0
 10
2.277338582677166
 20
3.466783464566929
 30
0.0
 10
2.277338582677166
 20
3.466783464566929
 30
0.0
 10
2.277338582677166
 20
3.499377952755906
 30
0.0
 10
2.235649606299213
 20
3.542185039370079
 30
0.0
 10
2.20192125984252
 20
3.542185039370079
 30
0.0
 10
2.20192125984252
 20
3.542185039370079
 30
0.0
 10
2.20192125984252
 20
3.542185039370079
 30
0.0
 10
2.187779527559055
 20
3.542185039370079
 30
0.0
 10
2.187779527559055
 20
3.542185039370079
 30
0.0
 10
2.187779527559055
 20
3.542185039370079
 30
0.0
 10
2.158767716535433
 20
3.542185039370079
 30
0.0
 10
2.112358267716536
 20
3.505196850393701
 30
0.0
 10
2.112358267716536
 20
3.476208661417323
 30
0.0
  0
SPLINE
  5
46
330
1F
100
AcDbEntity
  8
Layer 1
 62
     1
100
AcDbSpline
210
0.0
220
0.0
230
1.0
 70
    11
 71
     3
 72
    20
 73
    16
 74
     0
 42
0.0000000001
 43
0.0000000001
 40
0.0
 40
0.0
 40
0.0
 40
0.0
 40
0.25
 40
0.25
 40
0.25
 40
0.25
 40
0.5
 40
0.5
 40
0.5
 40
0.5
 40
0.75
 40
0.75
 40
0.75
 40
0.75
 40
1.0
 40
1.0
 40
1.0
 40
1.0
 10
2.69686220472441
 20
3.405515748031496
 30
0.0
 10
2.69686220472441
 20
3.405515748031496
 30
0.0
 10
2.824129921259843
 20
3.405515748031496
 30
0.0
 10
2.824129921259843
 20
3.405515748031496
 30
0.0
 10
2.824129921259843
 20
3.405515748031496
 30
0.0
 10
2.824129921259843
 20
3.405515748031496
 30
0.0
 10
2.824129921259843
 20
3.457358267716536
 30
0.0
 10
2.824129921259843
 20
3.457358267716536
 30
0.0
 10
2.824129921259843
 20
3.457358267716536
 30
0.0
 10
2.824129921259843
 20
3.457358267716536
 30
0.0
 10
2.69686220472441
 20
3.457358267716536
 30
0.0
 10
2.69686220472441
 20
3.457358267716536
 30
0.0
 10
2.69686220472441
 20
3.457358267716536
 30
0.0
 10
2.69686220472441
 20
3.457358267716536
 30
0.0
 10
2.69686220472441
 20
3.405515748031496
 30
0.0
 10
2.69686220472441
 20
3.405515748031496
 30
0.0
  0
SPLINE
  5
47
330
1F
100
AcDbEntity
  8
Layer 1
 62
     1
100
AcDbSpline
210
0.0
220
0.0
230
1.0
 70
    11
 71
     3
 72
    20
 73
    16
 74
     0
 42
0.0000000001
 43
0.0000000001
 40
0.0
 40
0.0
 40
0.0
 40
0.0
 40
0.25
 40
0.25
 40
0.25
 40
0.25
 40
0.5
 40
0.5
 40
0.5
 40
0.5
 40
0.75
 40
0.75
 40
0.75
 40
0.75
 40
1.0
 40
1.0
 40
1.0
 40
1.0
 10
2.923122047244095
 20
3.405515748031496
 30
0.0
 10
2.923122047244095
 20
3.405515748031496
 30
0.0
 10
3.045677165354331
 20
3.405515748031496
 30
0.0
 10
3.045677165354331
 20
3.405515748031496
 30
0.0
 10
3.045677165354331
 20
3.405515748031496
 30
0.0
 10
3.045677165354331
 20
3.405515748031496
 30
0.0
 10
3.045677165354331
 20
3.457358267716536
 30
0.0
 10
3.045677165354331
 20
3.457358267716536
 30
0.0
 10
3.045677165354331
 20
3.457358267716536
 30
0.0
 10
3.045677165354331
 20
3.457358267716536
 30
0.0
 10
2.923122047244095
 20
3.457358267716536
 30
0.0
 10
2.923122047244095
 20
3.457358267716536
 30
0.0
 10
2.923122047244095
 20
3.457358267716536
 30
0.0
 10
2.923122047244095
 20
3.457358267716536
 30
0.0
 10
2.923122047244095
 20
3.405515748031496
 30
0.0
 10
2.923122047244095
 20
3.405515748031496
 30
0.0
  0
SPLINE
  5
48
330
1F
100
AcDbEntity
  8
Layer 1
 62
     1
100
AcDbSpline
210
0.0
220
0.0
230
1.0
 70
    11
 71
     3
 72
    20
 73
    16
 74
     0
 42
0.0000000001
 43
0.0000000001
 40
0.0
 40
0.0
 40
0.0
 40
0.0
 40
0.25
 40
0.25
 40
0.25
 40
0.25
 40
0.5
 40
0.5
 40
0.5
 40
0.5
 40
0.75
 40
0.75
 40
0.75
 40
0.75
 40
1.0
 40
1.0
 40
1.0
 40
1.0
 10
3.149377952755906
 20
3.405515748031496
 30
0.0
 10
3.149377952755906
 20
3.405515748031496
 30
0.0
 10
3.271937007874016
 20
3.405515748031496
 30
0.0
 10
3.271937007874016
 20
3.405515748031496
 30
0.0
 10
3.271937007874016
 20
3.405515748031496
 30
0.0
 10
3.271937007874016
 20
3.405515748031496
 30
0.0
 10
3.271937007874016
 20
3.452645669291339
 30
0.0
 10
3.271937007874016
 20
3.452645669291339
 30
0.0
 10
3.271937007874016
 20
3.452645669291339
 30
0.0
 10
3.271937007874016
 20
3.452645669291339
 30
0.0
 10
3.149377952755906
 20
3.452645669291339
 30
0.0
 10
3.149377952755906
 20
3.452645669291339
 30
0.0
 10
3.149377952755906
 20
3.452645669291339
 30
0.0
 10
3.149377952755906
 20
3.452645669291339
 30
0.0
 10
3.149377952755906
 20
3.405515748031496
 30
0.0
 10
3.149377952755906
 20
3.405515748031496
 30
0.0
  0
SPLINE
  5
49
330
1F
100
AcDbEntity
  8
Layer 1
 62
   251
100
AcDbSpline
210
0.0
220
0.0
230
1.0
 70
    11
 71
     3
 72
    20
 73
    16
 74
     0
 42
0.0000000001
 43
0.0000000001
 40
0.0
 40
0.0
 40
0.0
 40
0.0
 40
0.25
 40
0.25
 40
0.25
 40
0.25
 40
0.5
 40
0.5
 40
0.5
 40
0.5
 40
0.75
 40
0.75
 40
0.75
 40
0.75
 40
1.0
 40
1.0
 40
1.0
 40
1.0
 10
3.149377952755906
 20
3.452645669291339
 30
0.0
 10
3.149377952755906
 20
3.452645669291339
 30
0.0
 10
3.271937007874016
 20
3.452645669291339
 30
0.0
 10
3.271937007874016
 20
3.452645669291339
 30
0.0
 10
3.271937007874016
 20
3.452645669291339
 30
0.0
 10
3.271937007874016
 20
3.452645669291339
 30
0.0
 10
3.271937007874016
 20
3.405515748031496
 30
0.0
 10
3.271937007874016
 20
3.405515748031496
 30
0.0
 10
3.271937007874016
 20
3.405515748031496
 30
0.0
 10
3.271937007874016
 20
3.405515748031496
 30
0.0
 10
3.149377952755906
 20
3.405515748031496
 30
0.0
 10
3.149377952755906
 20
3.405515748031496
 30
0.0
 10
3.149377952755906
 20
3.405515748031496
 30
0.0
 10
3.149377952755906
 20
3.405515748031496
 30
0.0
 10
3.149377952755906
 20
3.452645669291339
 30
0.0
 10
3.149377952755906
 20
3.452645669291339
 30
0.0
  0
SPLINE
  5
4A
330
1F
100
AcDbEntity
  8
Layer 1
 62
   251
100
AcDbSpline
210
0.0
220
0.0
230
1.0
 70
    11
 71
     3
 72
    20
 73
    16
 74
     0
 42
0.0000000001
 43
0.0000000001
 40
0.0
 40
0.0
 40
0.0
 40
0.0
 40
0.25
 40
0.25
 40
0.25
 40
0.25
 40
0.5
 40
0.5
 40
0.5
 40
0.5
 40
0.75
 40
0.75
 40
0.75
 40
0.75
 40
1.0
 40
1.0
 40
1.0
 40
1.0
 10
2.923122047244095
 20
3.457358267716536
 30
0.0
 10
2.923122047244095
 20
3.457358267716536
 30
0.0
 10
3.045677165354331
 20
3.457358267716536
 30
0.0
 10
3.045677165354331
 20
3.457358267716536
 30
0.0
 10
3.045677165354331
 20
3.457358267716536
 30
0.0
 10
3.045677165354331
 20
3.457358267716536
 30
0.0
 10
3.045677165354331
 20
3.405515748031496
 30
0.0
 10
3.045677165354331
 20
3.405515748031496
 30
0.0
 10
3.045677165354331
 20
3.405515748031496
 30
0.0
 10
3.045677165354331
 20
3.405515748031496
 30
0.0
 10
2.923122047244095
 20
3.405515748031496
 30
0.0
 10
2.923122047244095
 20
3.405515748031496
 30
0.0
 10
2.923122047244095
 20
3.405515748031496
 30
0.0
 10
2.923122047244095
 20
3.405515748031496
 30
0.0
 10
2.923122047244095
 20
3.457358267716536
 30
0.0
 10
2.923122047244095
 20
3.457358267716536
 30
0.0
  0
SPLINE
  5
4B
330
1F
100
AcDbEntity
  8
Layer 1
 62
   251
100
AcDbSpline
210
0.0
220
0.0
230
1.0
 70
    11
 71
     3
 72
    20
 73
    16
 74
     0
 42
0.0000000001
 43
0.0000000001
 40
0.0
 40
0.0
 40
0.0
 40
0.0
 40
0.25
 40
0.25
 40
0.25
 40
0.25
 40
0.5
 40
0.5
 40
0.5
 40
0.5
 40
0.75
 40
0.75
 40
0.75
 40
0.75
 40
1.0
 40
1.0
 40
1.0
 40
1.0
 10
2.69686220472441
 20
3.457358267716536
 30
0.0
 10
2.69686220472441
 20
3.457358267716536
 30
0.0
 10
2.824129921259843
 20
3.457358267716536
 30
0.0
 10
2.824129921259843
 20
3.457358267716536
 30
0.0
 10
2.824129921259843
 20
3.457358267716536
 30
0.0
 10
2.824129921259843
 20
3.457358267716536
 30
0.0
 10
2.824129921259843
 20
3.405515748031496
 30
0.0
 10
2.824129921259843
 20
3.405515748031496
 30
0.0
 10
2.824129921259843
 20
3.405515748031496
 30
0.0
 10
2.824129921259843
 20
3.405515748031496
 30
0.0
 10
2.69686220472441
 20
3.405515748031496
 30
0.0
 10
2.69686220472441
 20
3.405515748031496
 30
0.0
 10
2.69686220472441
 20
3.405515748031496
 30
0.0
 10
2.69686220472441
 20
3.405515748031496
 30
0.0
 10
2.69686220472441
 20
3.457358267716536
 30
0.0
 10
2.69686220472441
 20
3.457358267716536
 30
0.0
  0
SPLINE
  5
4C
330
1F
100
AcDbEntity
  8
Layer 1
 62
   251
100
AcDbSpline
210
0.0
220
0.0
230
1.0
 70
    11
 71
     3
 72
    20
 73
    16
 74
     0
 42
0.0000000001
 43
0.0000000001
 40
0.0
 40
0.0
 40
0.0
 40
0.0
 40
0.25
 40
0.25
 40
0.25
 40
0.25
 40
0.5
 40
0.5
 40
0.5
 40
0.5
 40
0.75
 40
0.75
 40
0.75
 40
0.75
 40
1.0
 40
1.0
 40
1.0
 40
1.0
 10
2.593157480314961
 20
3.396090551181103
 30
0.0
 10
2.593157480314961
 20
3.396090551181103
 30
0.0
 10
3.375637795275591
 20
3.396090551181103
 30
0.0
 10
3.375637795275591
 20
3.396090551181103
 30
0.0
 10
3.375637795275591
 20
3.396090551181103
 30
0.0
 10
3.375637795275591
 20
3.396090551181103
 30
0.0
 10
3.375637795275591
 20
3.466783464566929
 30
0.0
 10
3.375637795275591
 20
3.466783464566929
 30
0.0
 10
3.375637795275591
 20
3.466783464566929
 30
0.0
 10
3.375637795275591
 20
3.466783464566929
 30
0.0
 10
2.593157480314961
 20
3.466783464566929
 30
0.0
 10
2.593157480314961
 20
3.466783464566929
 30
0.0
 10
2.593157480314961
 20
3.466783464566929
 30
0.0
 10
2.593157480314961
 20
3.466783464566929
 30
0.0
 10
2.593157480314961
 20
3.396090551181103
 30
0.0
 10
2.593157480314961
 20
3.396090551181103
 30
0.0
  0
SPLINE
  5
4D
330
1F
100
AcDbEntity
  8
Layer 1
 62
   251
100
AcDbSpline
210
0.0
220
0.0
230
1.0
 70
    11
 71
     3
 72
    36
 73
    32
 74
     0
 42
0.0000000001
 43
0.0000000001
 40
0.0
 40
0.0
 40
0.0
 40
0.0
 40
0.125
 40
0.125
 40
0.125
 40
0.125
 40
0.25
 40
0.25
 40
0.25
 40
0.25
 40
0.375
 40
0.375
 40
0.375
 40
0.375
 40
0.5
 40
0.5
 40
0.5
 40
0.5
 40
0.625
 40
0.625
 40
0.625
 40
0.625
 40
0.75
 40
0.75
 40
0.75
 40
0.75
 40
0.875
 40
0.875
 40
0.875
 40
0.875
 40
1.0
 40
1.0
 40
1.0
 40
1.0
 10
-2.992606299212599
 20
4.654393700787402
 30
0.0
 10
-2.992606299212599
 20
4.689740157480316
 30
0.0
 10
-2.969625984251969
 20
4.720374015748032
 30
0.0
 10
-2.93603937007874
 20
4.720374015748032
 30
0.0
 10
-2.93603937007874
 20
4.720374015748032
 30
0.0
 10
-2.93603937007874
 20
4.720374015748032
 30
0.0
 10
-2.375106299212598
 20
4.720374015748032
 30
0.0
 10
-2.375106299212598
 20
4.720374015748032
 30
0.0
 10
-2.375106299212598
 20
4.720374015748032
 30
0.0
 10
-2.349795275590551
 20
4.720374015748032
 30
0.0
 10
-2.323255905511811
 20
4.693838582677166
 30
0.0
 10
-2.323255905511811
 20
4.668535433070867
 30
0.0
 10
-2.323255905511811
 20
4.668535433070867
 30
0.0
 10
-2.323255905511811
 20
4.668535433070867
 30
0.0
 10
-2.323255905511811
 20
4.159555118110236
 30
0.0
 10
-2.323255905511811
 20
4.159555118110236
 30
0.0
 10
-2.323255905511811
 20
4.159555118110236
 30
0.0
 10
-2.323255905511811
 20
4.143748031496063
 30
0.0
 10
-2.354074803149607
 20
4.117141732283465
 30
0.0
 10
-2.375106299212598
 20
4.117141732283465
 30
0.0
 10
-2.375106299212598
 20
4.117141732283465
 30
0.0
 10
-2.375106299212598
 20
4.117141732283465
 30
0.0
 10
-2.93603937007874
 20
4.117141732283465
 30
0.0
 10
-2.93603937007874
 20
4.117141732283465
 30
0.0
 10
-2.93603937007874
 20
4.117141732283465
 30
0.0
 10
-2.969625984251969
 20
4.117141732283465
 30
0.0
 10
-2.992606299212599
 20
4.147775590551182
 30
0.0
 10
-2.992606299212599
 20
4.183122047244095
 30
0.0
 10
-2.992606299212599
 20
4.183122047244095
 30
0.0
 10
-2.992606299212599
 20
4.183122047244095
 30
0.0
 10
-2.992606299212599
 20
4.654393700787402
 30
0.0
 10
-2.992606299212599
 20
4.654393700787402
 30
0.0
  0
SPLINE
  5
4E
330
1F
100
AcDbEntity
  8
Layer 1
 62
   251
100
AcDbSpline
210
0.0
220
0.0
230
1.0
 70
    11
 71
     3
 72
    24
 73
    20
 74
     0
 42
0.0000000001
 43
0.0000000001
 40
0.0
 40
0.0
 40
0.0
 40
0.0
 40
0.2
 40
0.2
 40
0.2
 40
0.2
 40
0.4
 40
0.4
 40
0.4
 40
0.4
 40
0.6000000000000001
 40
0.6000000000000001
 40
0.6000000000000001
 40
0.6000000000000001
 40
0.8
 40
0.8
 40
0.8
 40
0.8
 40
1.0
 40
1.0
 40
1.0
 40
1.0
 10
-3.063311023622048
 20
3.556322834645669
 30
0.0
 10
-3.063311023622048
 20
3.545251968503937
 30
0.0
 10
-2.965846456692914
 20
3.433326771653543
 30
0.0
 10
-2.959610236220473
 20
3.358389763779528
 30
0.0
 10
-2.959610236220473
 20
3.358389763779528
 30
0.0
 10
-2.959610236220473
 20
3.358389763779528
 30
0.0
 10
-2.257263779527559
 20
3.358389763779528
 30
0.0
 10
-2.257263779527559
 20
3.358389763779528
 30
0.0
 10
-2.257263779527559
 20
3.358389763779528
 30
0.0
 10
-2.257263779527559
 20
3.358389763779528
 30
0.0
 10
-2.257263779527559
 20
4.7675
 30
0.0
 10
-2.257263779527559
 20
4.7675
 30
0.0
 10
-2.257263779527559
 20
4.7675
 30
0.0
 10
-2.257263779527559
 20
4.7675
 30
0.0
 10
-3.063311023622048
 20
4.7675
 30
0.0
 10
-3.063311023622048
 20
4.7675
 30
0.0
 10
-3.063311023622048
 20
4.7675
 30
0.0
 10
-3.063311023622048
 20
4.7675
 30
0.0
 10
-3.063311023622048
 20
3.556322834645669
 30
0.0
 10
-3.063311023622048
 20
3.556322834645669
 30
0.0
  0
SPLINE
  5
4F
330
1F
100
AcDbEntity
  8
Layer 1
 62
    52
100
AcDbSpline
210
0.0
220
0.0
230
1.0
 70
    11
 71
     3
 72
    32
 73
    28
 74
     0
 42
0.0000000001
 43
0.0000000001
 40
0.0
 40
0.0
 40
0.0
 40
0.0
 40
0.1428571428571429
 40
0.1428571428571429
 40
0.1428571428571429
 40
0.1428571428571429
 40
0.2857142857142857
 40
0.2857142857142857
 40
0.2857142857142857
 40
0.2857142857142857
 40
0.4285714285714286
 40
0.4285714285714286
 40
0.4285714285714286
 40
0.4285714285714286
 40
0.5714285714285714
 40
0.5714285714285714
 40
0.5714285714285714
 40
0.5714285714285714
 40
0.7142857142857142
 40
0.7142857142857142
 40
0.7142857142857142
 40
0.7142857142857142
 40
0.857142857142857
 40
0.857142857142857
 40
0.857142857142857
 40
0.857142857142857
 40
1.0
 40
1.0
 40
1.0
 40
1.0
 10
3.696169291338583
 20
3.466783464566929
 30
0.0
 10
3.696169291338583
 20
3.498570866141733
 30
0.0
 10
3.738858267716536
 20
3.542185039370079
 30
0.0
 10
3.771590551181102
 20
3.542185039370079
 30
0.0
 10
3.771590551181102
 20
3.542185039370079
 30
0.0
 10
3.771590551181102
 20
3.542185039370079
 30
0.0
 10
3.785732283464567
 20
3.542185039370079
 30
0.0
 10
3.785732283464567
 20
3.542185039370079
 30
0.0
 10
3.785732283464567
 20
3.542185039370079
 30
0.0
 10
3.816708661417323
 20
3.542185039370079
 30
0.0
 10
3.861149606299213
 20
3.503893700787402
 30
0.0
 10
3.861149606299213
 20
3.471496062992126
 30
0.0
 10
3.861149606299213
 20
3.471496062992126
 30
0.0
 10
3.861149606299213
 20
3.471496062992126
 30
0.0
 10
3.861149606299213
 20
3.466783464566929
 30
0.0
 10
3.861149606299213
 20
3.466783464566929
 30
0.0
 10
3.861149606299213
 20
3.466783464566929
 30
0.0
 10
3.861149606299213
 20
3.423708661417323
 30
0.0
 10
3.82409842519685
 20
3.386665354330709
 30
0.0
 10
3.781015748031496
 20
3.386665354330709
 30
0.0
 10
3.781015748031496
 20
3.386665354330709
 30
0.0
 10
3.781015748031496
 20
3.386665354330709
 30
0.0
 10
3.771590551181102
 20
3.386665354330709
 30
0.0
 10
3.771590551181102
 20
3.386665354330709
 30
0.0
 10
3.771590551181102
 20
3.386665354330709
 30
0.0
 10
3.736503937007874
 20
3.386665354330709
 30
0.0
 10
3.696169291338583
 20
3.429090551181103
 30
0.0
 10
3.696169291338583
 20
3.466783464566929
 30
0.0
  0
SPLINE
  5
50
330
1F
100
AcDbEntity
  8
Layer 1
 62
    52
100
AcDbSpline
210
0.0
220
0.0
230
1.0
 70
    11
 71
     3
 72
    20
 73
    16
 74
     0
 42
0.0000000001
 43
0.0000000001
 40
0.0
 40
0.0
 40
0.0
 40
0.0
 40
0.25
 40
0.25
 40
0.25
 40
0.25
 40
0.5
 40
0.5
 40
0.5
 40
0.5
 40
0.75
 40
0.75
 40
0.75
 40
0.75
 40
1.0
 40
1.0
 40
1.0
 40
1.0
 10
3.710311023622047
 20
3.692996062992126
 30
0.0
 10
3.710311023622047
 20
3.692996062992126
 30
0.0
 10
3.842295275590551
 20
3.692996062992126
 30
0.0
 10
3.842295275590551
 20
3.692996062992126
 30
0.0
 10
3.842295275590551
 20
3.692996062992126
 30
0.0
 10
3.842295275590551
 20
3.692996062992126
 30
0.0
 10
3.842295275590551
 20
3.631728346456693
 30
0.0
 10
3.842295275590551
 20
3.631728346456693
 30
0.0
 10
3.842295275590551
 20
3.631728346456693
 30
0.0
 10
3.842295275590551
 20
3.631728346456693
 30
0.0
 10
3.710311023622047
 20
3.631728346456693
 30
0.0
 10
3.710311023622047
 20
3.631728346456693
 30
0.0
 10
3.710311023622047
 20
3.631728346456693
 30
0.0
 10
3.710311023622047
 20
3.631728346456693
 30
0.0
 10
3.710311023622047
 20
3.692996062992126
 30
0.0
 10
3.710311023622047
 20
3.692996062992126
 30
0.0
  0
SPLINE
  5
51
330
1F
100
AcDbEntity
  8
Layer 1
 62
    52
100
AcDbSpline
210
0.0
220
0.0
230
1.0
 70
    11
 71
     3
 72
    36
 73
    32
 74
     0
 42
0.0000000001
 43
0.0000000001
 40
0.0
 40
0.0
 40
0.0
 40
0.0
 40
0.125
 40
0.125
 40
0.125
 40
0.125
 40
0.25
 40
0.25
 40
0.25
 40
0.25
 40
0.375
 40
0.375
 40
0.375
 40
0.375
 40
0.5
 40
0.5
 40
0.5
 40
0.5
 40
0.625
 40
0.625
 40
0.625
 40
0.625
 40
0.75
 40
0.75
 40
0.75
 40
0.75
 40
0.875
 40
0.875
 40
0.875
 40
0.875
 40
1.0
 40
1.0
 40
1.0
 40
1.0
 10
3.847011811023622
 20
3.334826771653543
 30
0.0
 10
3.875106299212598
 20
3.334826771653543
 30
0.0
 10
3.884720472440945
 20
3.353846456692914
 30
0.0
 10
3.884720472440945
 20
3.381952755905512
 30
0.0
 10
3.884720472440945
 20
3.381952755905512
 30
0.0
 10
3.884720472440945
 20
3.381952755905512
 30
0.0
 10
3.884720472440945
 20
3.683566929133858
 30
0.0
 10
3.884720472440945
 20
3.683566929133858
 30
0.0
 10
3.884720472440945
 20
3.683566929133858
 30
0.0
 10
3.884720472440945
 20
3.717259842519685
 30
0.0
 10
3.871279527559056
 20
3.730696850393701
 30
0.0
 10
3.837582677165354
 20
3.730696850393701
 30
0.0
 10
3.837582677165354
 20
3.730696850393701
 30
0.0
 10
3.837582677165354
 20
3.730696850393701
 30
0.0
 10
3.70559842519685
 20
3.730696850393701
 30
0.0
 10
3.70559842519685
 20
3.730696850393701
 30
0.0
 10
3.70559842519685
 20
3.730696850393701
 30
0.0
 10
3.683594488188977
 20
3.730696850393701
 30
0.0
 10
3.672602362204724
 20
3.719708661417323
 30
0.0
 10
3.672602362204724
 20
3.697708661417323
 30
0.0
 10
3.672602362204724
 20
3.697708661417323
 30
0.0
 10
3.672602362204724
 20
3.697708661417323
 30
0.0
 10
3.672602362204724
 20
3.367814960629922
 30
0.0
 10
3.672602362204724
 20
3.367814960629922
 30
0.0
 10
3.672602362204724
 20
3.367814960629922
 30
0.0
 10
3.672602362204724
 20
3.345814960629921
 30
0.0
 10
3.683594488188977
 20
3.334826771653543
 30
0.0
 10
3.70559842519685
 20
3.334826771653543
 30
0.0
 10
3.70559842519685
 20
3.334826771653543
 30
0.0
 10
3.70559842519685
 20
3.334826771653543
 30
0.0
 10
3.847011811023622
 20
3.334826771653543
 30
0.0
 10
3.847011811023622
 20
3.334826771653543
 30
0.0
  0
SPLINE
  5
52
330
1F
100
AcDbEntity
  8
Layer 1
 62
    52
100
AcDbSpline
210
0.0
220
0.0
230
1.0
 70
    11
 71
     3
 72
    32
 73
    28
 74
     0
 42
0.0000000001
 43
0.0000000001
 40
0.0
 40
0.0
 40
0.0
 40
0.0
 40
0.1428571428571429
 40
0.1428571428571429
 40
0.1428571428571429
 40
0.1428571428571429
 40
0.2857142857142857
 40
0.2857142857142857
 40
0.2857142857142857
 40
0.2857142857142857
 40
0.4285714285714286
 40
0.4285714285714286
 40
0.4285714285714286
 40
0.4285714285714286
 40
0.5714285714285714
 40
0.5714285714285714
 40
0.5714285714285714
 40
0.5714285714285714
 40
0.7142857142857142
 40
0.7142857142857142
 40
0.7142857142857142
 40
0.7142857142857142
 40
0.857142857142857
 40
0.857142857142857
 40
0.857142857142857
 40
0.857142857142857
 40
1.0
 40
1.0
 40
1.0
 40
1.0
 10
2.112358267716536
 20
3.476208661417323
 30
0.0
 10
2.112358267716536
 20
3.505196850393701
 30
0.0
 10
2.158767716535433
 20
3.542185039370079
 30
0.0
 10
2.187779527559055
 20
3.542185039370079
 30
0.0
 10
2.187779527559055
 20
3.542185039370079
 30
0.0
 10
2.187779527559055
 20
3.542185039370079
 30
0.0
 10
2.20192125984252
 20
3.542185039370079
 30
0.0
 10
2.20192125984252
 20
3.542185039370079
 30
0.0
 10
2.20192125984252
 20
3.542185039370079
 30
0.0
 10
2.235649606299213
 20
3.542185039370079
 30
0.0
 10
2.277338582677166
 20
3.499377952755906
 30
0.0
 10
2.277338582677166
 20
3.466783464566929
 30
0.0
 10
2.277338582677166
 20
3.466783464566929
 30
0.0
 10
2.277338582677166
 20
3.429090551181103
 30
0.0
 10
2.237007874015748
 20
3.386665354330709
 30
0.0
 10
2.20192125984252
 20
3.386665354330709
 30
0.0
 10
2.20192125984252
 20
3.386665354330709
 30
0.0
 10
2.20192125984252
 20
3.386665354330709
 30
0.0
 10
2.192492125984252
 20
3.386665354330709
 30
0.0
 10
2.192492125984252
 20
3.386665354330709
 30
0.0
 10
2.192492125984252
 20
3.386665354330709
 30
0.0
 10
2.149413385826772
 20
3.386665354330709
 30
0.0
 10
2.112358267716536
 20
3.423708661417323
 30
0.0
 10
2.112358267716536
 20
3.466783464566929
 30
0.0
 10
2.112358267716536
 20
3.466783464566929
 30
0.0
 10
2.112358267716536
 20
3.466783464566929
 30
0.0
 10
2.112358267716536
 20
3.476208661417323
 30
0.0
 10
2.112358267716536
 20
3.476208661417323
 30
0.0
  0
SPLINE
  5
53
330
1F
100
AcDbEntity
  8
Layer 1
 62
    52
100
AcDbSpline
210
0.0
220
0.0
230
1.0
 70
    11
 71
     3
 72
    20
 73
    16
 74
     0
 42
0.0000000001
 43
0.0000000001
 40
0.0
 40
0.0
 40
0.0
 40
0.0
 40
0.25
 40
0.25
 40
0.25
 40
0.25
 40
0.5
 40
0.5
 40
0.5
 40
0.5
 40
0.75
 40
0.75
 40
0.75
 40
0.75
 40
1.0
 40
1.0
 40
1.0
 40
1.0
 10
2.1265
 20
3.692996062992126
 30
0.0
 10
2.1265
 20
3.692996062992126
 30
0.0
 10
2.253771653543307
 20
3.692996062992126
 30
0.0
 10
2.253771653543307
 20
3.692996062992126
 30
0.0
 10
2.253771653543307
 20
3.692996062992126
 30
0.0
 10
2.253771653543307
 20
3.692996062992126
 30
0.0
 10
2.253771653543307
 20
3.631728346456693
 30
0.0
 10
2.253771653543307
 20
3.631728346456693
 30
0.0
 10
2.253771653543307
 20
3.631728346456693
 30
0.0
 10
2.253771653543307
 20
3.631728346456693
 30
0.0
 10
2.1265
 20
3.631728346456693
 30
0.0
 10
2.1265
 20
3.631728346456693
 30
0.0
 10
2.1265
 20
3.631728346456693
 30
0.0
 10
2.1265
 20
3.631728346456693
 30
0.0
 10
2.1265
 20
3.692996062992126
 30
0.0
 10
2.1265
 20
3.692996062992126
 30
0.0
  0
SPLINE
  5
54
330
1F
100
AcDbEntity
  8
Layer 1
 62
    52
100
AcDbSpline
210
0.0
220
0.0
230
1.0
 70
    11
 71
     3
 72
    36
 73
    32
 74
     0
 42
0.0000000001
 43
0.0000000001
 40
0.0
 40
0.0
 40
0.0
 40
0.0
 40
0.125
 40
0.125
 40
0.125
 40
0.125
 40
0.25
 40
0.25
 40
0.25
 40
0.25
 40
0.375
 40
0.375
 40
0.375
 40
0.375
 40
0.5
 40
0.5
 40
0.5
 40
0.5
 40
0.625
 40
0.625
 40
0.625
 40
0.625
 40
0.75
 40
0.75
 40
0.75
 40
0.75
 40
0.875
 40
0.875
 40
0.875
 40
0.875
 40
1.0
 40
1.0
 40
1.0
 40
1.0
 10
2.088791338582677
 20
3.381952755905512
 30
0.0
 10
2.088791338582677
 20
3.353846456692914
 30
0.0
 10
2.098405511811024
 20
3.334826771653543
 30
0.0
 10
2.1265
 20
3.334826771653543
 30
0.0
 10
2.1265
 20
3.334826771653543
 30
0.0
 10
2.1265
 20
3.334826771653543
 30
0.0
 10
2.263196850393701
 20
3.334826771653543
 30
0.0
 10
2.263196850393701
 20
3.334826771653543
 30
0.0
 10
2.263196850393701
 20
3.334826771653543
 30
0.0
 10
2.285200787401575
 20
3.334826771653543
 30
0.0
 10
2.296196850393701
 20
3.345814960629921
 30
0.0
 10
2.296196850393701
 20
3.367814960629922
 30
0.0
 10
2.296196850393701
 20
3.367814960629922
 30
0.0
 10
2.296196850393701
 20
3.367814960629922
 30
0.0
 10
2.296196850393701
 20
3.697708661417323
 30
0.0
 10
2.296196850393701
 20
3.697708661417323
 30
0.0
 10
2.296196850393701
 20
3.697708661417323
 30
0.0
 10
2.296196850393701
 20
3.719708661417323
 30
0.0
 10
2.285200787401575
 20
3.730696850393701
 30
0.0
 10
2.263196850393701
 20
3.730696850393701
 30
0.0
 10
2.263196850393701
 20
3.730696850393701
 30
0.0
 10
2.263196850393701
 20
3.730696850393701
 30
0.0
 10
2.121787401574803
 20
3.730696850393701
 30
0.0
 10
2.121787401574803
 20
3.730696850393701
 30
0.0
 10
2.121787401574803
 20
3.730696850393701
 30
0.0
 10
2.099779527559055
 20
3.730696850393701
 30
0.0
 10
2.088791338582677
 20
3.719708661417323
 30
0.0
 10
2.088791338582677
 20
3.697708661417323
 30
0.0
 10
2.088791338582677
 20
3.697708661417323
 30
0.0
 10
2.088791338582677
 20
3.697708661417323
 30
0.0
 10
2.088791338582677
 20
3.381952755905512
 30
0.0
 10
2.088791338582677
 20
3.381952755905512
 30
0.0
  0
SPLINE
  5
55
330
1F
100
AcDbEntity
  8
Layer 1
 62
   176
100
AcDbSpline
210
0.0
220
0.0
230
1.0
 70
    11
 71
     3
 72
    24
 73
    20
 74
     0
 42
0.0000000001
 43
0.0000000001
 40
0.0
 40
0.0
 40
0.0
 40
0.0
 40
0.2
 40
0.2
 40
0.2
 40
0.2
 40
0.4
 40
0.4
 40
0.4
 40
0.4
 40
0.6000000000000001
 40
0.6000000000000001
 40
0.6000000000000001
 40
0.6000000000000001
 40
0.8
 40
0.8
 40
0.8
 40
0.8
 40
1.0
 40
1.0
 40
1.0
 40
1.0
 10
-3.063311023622048
 20
4.7675
 30
0.0
 10
-3.063311023622048
 20
4.7675
 30
0.0
 10
-2.257263779527559
 20
4.7675
 30
0.0
 10
-2.257263779527559
 20
4.7675
 30
0.0
 10
-2.257263779527559
 20
4.7675
 30
0.0
 10
-2.257263779527559
 20
4.7675
 30
0.0
 10
-2.257263779527559
 20
3.358389763779528
 30
0.0
 10
-2.257263779527559
 20
3.358389763779528
 30
0.0
 10
-2.257263779527559
 20
3.358389763779528
 30
0.0
 10
-2.257263779527559
 20
3.358389763779528
 30
0.0
 10
-2.959610236220473
 20
3.358389763779528
 30
0.0
 10
-2.959610236220473
 20
3.358389763779528
 30
0.0
 10
-2.959610236220473
 20
3.358389763779528
 30
0.0
 10
-2.965846456692914
 20
3.433326771653543
 30
0.0
 10
-3.063311023622048
 20
3.545251968503937
 30
0.0
 10
-3.063311023622048
 20
3.556322834645669
 30
0.0
 10
-3.063311023622048
 20
3.556322834645669
 30
0.0
 10
-3.063311023622048
 20
3.556322834645669
 30
0.0
 10
-3.063311023622048
 20
4.7675
 30
0.0
 10
-3.063311023622048
 20
4.7675
 30
0.0
  0
SPLINE
  5
56
330
1F
100
AcDbEntity
  8
Layer 1
 62
   176
100
AcDbSpline
210
0.0
220
0.0
230
1.0
 70
    11
 71
     3
 72
    44
 73
    40
 74
     0
 42
0.0000000001
 43
0.0000000001
 40
0.0
 40
0.0
 40
0.0
 40
0.0
 40
0.1
 40
0.1
 40
0.1
 40
0.1
 40
0.2
 40
0.2
 40
0.2
 40
0.2
 40
0.3
 40
0.3
 40
0.3
 40
0.3
 40
0.4
 40
0.4
 40
0.4
 40
0.4
 40
0.5
 40
0.5
 40
0.5
 40
0.5
 40
0.6
 40
0.6
 40
0.6
 40
0.6
 40
0.7
 40
0.7
 40
0.7
 40
0.7
 40
0.7999999999999999
 40
0.7999999999999999
 40
0.7999999999999999
 40
0.7999999999999999
 40
0.8999999999999999
 40
0.8999999999999999
 40
0.8999999999999999
 40
0.8999999999999999
 40
1.0
 40
1.0
 40
1.0
 40
1.0
 10
-3.487547244094488
 20
4.173692913385827
 30
0.0
 10
-3.487547244094488
 20
4.195374015748032
 30
0.0
 10
-3.410700787401575
 20
4.420389763779528
 30
0.0
 10
-3.398590551181103
 20
4.457062992125985
 30
0.0
 10
-3.398590551181103
 20
4.457062992125985
 30
0.0
 10
-3.383287401574803
 20
4.50340157480315
 30
0.0
 10
-3.366952755905512
 20
4.551948818897638
 30
0.0
 10
-3.351444881889764
 20
4.59844094488189
 30
0.0
 10
-3.351444881889764
 20
4.59844094488189
 30
0.0
 10
-3.338488188976378
 20
4.637299212598426
 30
0.0
 10
-3.326224409448819
 20
4.710948818897638
 30
0.0
 10
-3.280141732283465
 20
4.710948818897638
 30
0.0
 10
-3.280141732283465
 20
4.710948818897638
 30
0.0
 10
-3.280141732283465
 20
4.710948818897638
 30
0.0
 10
-3.190582677165355
 20
4.710948818897638
 30
0.0
 10
-3.190582677165355
 20
4.710948818897638
 30
0.0
 10
-3.190582677165355
 20
4.710948818897638
 30
0.0
 10
-3.157582677165355
 20
4.710948818897638
 30
0.0
 10
-3.138728346456693
 20
4.683763779527559
 30
0.0
 10
-3.138728346456693
 20
4.649681102362205
 30
0.0
 10
-3.138728346456693
 20
4.649681102362205
 30
0.0
 10
-3.138728346456693
 20
4.649681102362205
 30
0.0
 10
-3.138728346456693
 20
4.187834645669292
 30
0.0
 10
-3.138728346456693
 20
4.187834645669292
 30
0.0
 10
-3.138728346456693
 20
4.187834645669292
 30
0.0
 10
-3.138728346456693
 20
4.153751968503937
 30
0.0
 10
-3.157582677165355
 20
4.126566929133858
 30
0.0
 10
-3.190582677165355
 20
4.126566929133858
 30
0.0
 10
-3.190582677165355
 20
4.126566929133858
 30
0.0
 10
-3.190582677165355
 20
4.126566929133858
 30
0.0
 10
-3.426267716535433
 20
4.126566929133858
 30
0.0
 10
-3.426267716535433
 20
4.126566929133858
 30
0.0
 10
-3.426267716535433
 20
4.126566929133858
 30
0.0
 10
-3.451291338582677
 20
4.126566929133858
 30
0.0
 10
-3.487547244094488
 20
4.14346062992126
 30
0.0
 10
-3.487547244094488
 20
4.164271653543307
 30
0.0
 10
-3.487547244094488
 20
4.164271653543307
 30
0.0
 10
-3.487547244094488
 20
4.164271653543307
 30
0.0
 10
-3.487547244094488
 20
4.173692913385827
 30
0.0
 10
-3.487547244094488
 20
4.173692913385827
 30
0.0
  0
SPLINE
  5
57
330
1F
100
AcDbEntity
  8
Layer 1
 62
   176
100
AcDbSpline
210
0.0
220
0.0
230
1.0
 70
    11
 71
     3
 72
    64
 73
    60
 74
     0
 42
0.0000000001
 43
0.0000000001
 40
0.0
 40
0.0
 40
0.0
 40
0.0
 40
0.0666666666666667
 40
0.0666666666666667
 40
0.0666666666666667
 40
0.0666666666666667
 40
0.1333333333333333
 40
0.1333333333333333
 40
0.1333333333333333
 40
0.1333333333333333
 40
0.2
 40
0.2
 40
0.2
 40
0.2
 40
0.2666666666666667
 40
0.2666666666666667
 40
0.2666666666666667
 40
0.2666666666666667
 40
0.3333333333333333
 40
0.3333333333333333
 40
0.3333333333333333
 40
0.3333333333333333
 40
0.4
 40
0.4
 40
0.4
 40
0.4
 40
0.4666666666666666
 40
0.4666666666666666
 40
0.4666666666666666
 40
0.4666666666666666
 40
0.5333333333333333
 40
0.5333333333333333
 40
0.5333333333333333
 40
0.5333333333333333
 40
0.6
 40
0.6
 40
0.6
 40
0.6
 40
0.6666666666666666
 40
0.6666666666666666
 40
0.6666666666666666
 40
0.6666666666666666
 40
0.7333333333333333
 40
0.7333333333333333
 40
0.7333333333333333
 40
0.7333333333333333
 40
0.7999999999999999
 40
0.7999999999999999
 40
0.7999999999999999
 40
0.7999999999999999
 40
0.8666666666666666
 40
0.8666666666666666
 40
0.8666666666666666
 40
0.8666666666666666
 40
0.9333333333333332
 40
0.9333333333333332
 40
0.9333333333333332
 40
0.9333333333333332
 40
1.0
 40
1.0
 40
1.0
 40
1.0
 10
-4.185177165354331
 20
3.806102362204725
 30
0.0
 10
-4.185177165354331
 20
3.806102362204725
 30
0.0
 10
-4.185177165354331
 20
3.160452755905512
 30
0.0
 10
-4.185177165354331
 20
3.160452755905512
 30
0.0
 10
-4.185177165354331
 20
3.160452755905512
 30
0.0
 10
-1.631700787401575
 20
3.160452755905512
 30
0.0
 10
-0.2863188976377953
 20
3.160452755905512
 30
0.0
 10
1.777685039370079
 20
3.160452755905512
 30
0.0
 10
1.777685039370079
 20
3.160452755905512
 30
0.0
 10
1.777685039370079
 20
3.160452755905512
 30
0.0
 10
1.777685039370079
 20
3.457358267716536
 30
0.0
 10
1.777685039370079
 20
3.457358267716536
 30
0.0
 10
1.777685039370079
 20
3.457358267716536
 30
0.0
 10
1.777685039370079
 20
3.457358267716536
 30
0.0
 10
1.655125984251969
 20
3.457358267716536
 30
0.0
 10
1.655125984251969
 20
3.457358267716536
 30
0.0
 10
1.655125984251969
 20
3.457358267716536
 30
0.0
 10
1.655125984251969
 20
3.457358267716536
 30
0.0
 10
1.655125984251969
 20
5.281192913385827
 30
0.0
 10
1.655125984251969
 20
5.281192913385827
 30
0.0
 10
1.655125984251969
 20
5.281192913385827
 30
0.0
 10
1.655125984251969
 20
5.281192913385827
 30
0.0
 10
-3.209437007874016
 20
5.281192913385827
 30
0.0
 10
-3.209437007874016
 20
5.281192913385827
 30
0.0
 10
-3.209437007874016
 20
5.281192913385827
 30
0.0
 10
-3.224263779527559
 20
5.281192913385827
 30
0.0
 10
-3.247417322834646
 20
5.189925196850394
 30
0.0
 10
-3.251854330708662
 20
5.172795275590551
 30
0.0
 10
-3.251854330708662
 20
5.172795275590551
 30
0.0
 10
-3.260976377952756
 20
5.137582677165354
 30
0.0
 10
-3.27746062992126
 20
5.089629921259843
 30
0.0
 10
-3.289031496062992
 20
5.05444094488189
 30
0.0
 10
-3.289031496062992
 20
5.05444094488189
 30
0.0
 10
-3.309456692913386
 20
4.99232283464567
 30
0.0
 10
-3.348279527559055
 20
4.876704724409449
 30
0.0
 10
-3.359267716535433
 20
4.818334645669292
 30
0.0
 10
-3.359267716535433
 20
4.818334645669292
 30
0.0
 10
-3.38888188976378
 20
4.661027559055119
 30
0.0
 10
-3.462299212598425
 20
4.501114173228347
 30
0.0
 10
-3.499807086614173
 20
4.346185039370079
 30
0.0
 10
-3.499807086614173
 20
4.346185039370079
 30
0.0
 10
-3.519696850393701
 20
4.26401968503937
 30
0.0
 10
-3.547909448818898
 20
4.187259842519685
 30
0.0
 10
-3.571783464566929
 20
4.111818897637796
 30
0.0
 10
-3.571783464566929
 20
4.111818897637796
 30
0.0
 10
-3.583866141732284
 20
4.073637795275591
 30
0.0
 10
-3.623968503937008
 20
4.063748031496063
 30
0.0
 10
-3.660070866141732
 20
4.049283464566929
 30
0.0
 10
-3.660070866141732
 20
4.049283464566929
 30
0.0
 10
-3.69140157480315
 20
4.036732283464567
 30
0.0
 10
-3.731708661417323
 20
4.013555118110237
 30
0.0
 10
-3.763996062992126
 20
3.997665354330709
 30
0.0
 10
-3.763996062992126
 20
3.997665354330709
 30
0.0
 10
-3.83255905511811
 20
3.96392125984252
 30
0.0
 10
-3.905267716535433
 20
3.930830708661417
 30
0.0
 10
-3.973027559055118
 20
3.90032283464567
 30
0.0
 10
-3.973027559055118
 20
3.90032283464567
 30
0.0
 10
-4.013988188976378
 20
3.88188188976378
 30
0.0
 10
-4.153318897637796
 20
3.81351968503937
 30
0.0
 10
-4.185177165354331
 20
3.806102362204725
 30
0.0
  0
SPLINE
  5
58
330
1F
100
AcDbEntity
  8
Layer 1
 62
   251
100
AcDbSpline
210
0.0
220
0.0
230
1.0
 70
    11
 71
     3
 72
    52
 73
    48
 74
     0
 42
0.0000000001
 43
0.0000000001
 40
0.0
 40
0.0
 40
0.0
 40
0.0
 40
0.0833333333333333
 40
0.0833333333333333
 40
0.0833333333333333
 40
0.0833333333333333
 40
0.1666666666666667
 40
0.1666666666666667
 40
0.1666666666666667
 40
0.1666666666666667
 40
0.25
 40
0.25
 40
0.25
 40
0.25
 40
0.3333333333333333
 40
0.3333333333333333
 40
0.3333333333333333
 40
0.3333333333333333
 40
0.4166666666666666
 40
0.4166666666666666
 40
0.4166666666666666
 40
0.4166666666666666
 40
0.4999999999999999
 40
0.4999999999999999
 40
0.4999999999999999
 40
0.4999999999999999
 40
0.5833333333333333
 40
0.5833333333333333
 40
0.5833333333333333
 40
0.5833333333333333
 40
0.6666666666666666
 40
0.6666666666666666
 40
0.6666666666666666
 40
0.6666666666666666
 40
0.75
 40
0.75
 40
0.75
 40
0.75
 40
0.8333333333333334
 40
0.8333333333333334
 40
0.8333333333333334
 40
0.8333333333333334
 40
0.9166666666666667
 40
0.9166666666666667
 40
0.9166666666666667
 40
0.9166666666666667
 40
1.0
 40
1.0
 40
1.0
 40
1.0
 10
-0.376488188976378
 20
3.169877952755906
 30
0.0
 10
-0.376488188976378
 20
2.995149606299213
 30
0.0
 10
-0.1972952755905512
 20
2.825846456692914
 30
0.0
 10
-0.018244094488189
 20
2.825846456692914
 30
0.0
 10
-0.018244094488189
 20
2.825846456692914
 30
0.0
 10
0.0797322834645669
 20
2.825846456692914
 30
0.0
 10
0.1875748031496063
 20
2.872035433070866
 30
0.0
 10
0.2324015748031496
 20
2.924
 30
0.0
 10
0.2324015748031496
 20
2.924
 30
0.0
 10
0.280003937007874
 20
2.979185039370079
 30
0.0
 10
0.3494251968503937
 20
3.057456692913386
 30
0.0
 10
0.3494251968503937
 20
3.155740157480315
 30
0.0
 10
0.3494251968503937
 20
3.155740157480315
 30
0.0
 10
0.3494251968503937
 20
3.155740157480315
 30
0.0
 10
0.3494251968503937
 20
3.226433070866142
 30
0.0
 10
0.3494251968503937
 20
3.226433070866142
 30
0.0
 10
0.3494251968503937
 20
3.226433070866142
 30
0.0
 10
0.3494251968503937
 20
3.317318897637795
 30
0.0
 10
0.3024606299212598
 20
3.381775590551181
 30
0.0
 10
0.2617637795275591
 20
3.435692913385827
 30
0.0
 10
0.2617637795275591
 20
3.435692913385827
 30
0.0
 10
0.2387992125984252
 20
3.46611811023622
 30
0.0
 10
0.1213700787401575
 20
3.561677165354331
 30
0.0
 10
0.080744094488189
 20
3.542185039370079
 30
0.0
 10
0.080744094488189
 20
3.542185039370079
 30
0.0
 10
0.0733543307086614
 20
3.560488188976378
 30
0.0
 10
0.025996062992126
 20
3.561035433070866
 30
0.0
 10
0.0006102362204724
 20
3.561035433070866
 30
0.0
 10
0.0006102362204724
 20
3.561035433070866
 30
0.0
 10
0.0006102362204724
 20
3.561035433070866
 30
0.0
 10
-0.0276732283464567
 20
3.561035433070866
 30
0.0
 10
-0.0276732283464567
 20
3.561035433070866
 30
0.0
 10
-0.0276732283464567
 20
3.561035433070866
 30
0.0
 10
-0.082496062992126
 20
3.561035433070866
 30
0.0
 10
-0.1294724409448819
 20
3.54086220472441
 30
0.0
 10
-0.1602874015748032
 20
3.528779527559055
 30
0.0
 10
-0.1602874015748032
 20
3.528779527559055
 30
0.0
 10
-0.1922283464566929
 20
3.516259842519685
 30
0.0
 10
-0.2420590551181102
 20
3.481283464566929
 30
0.0
 10
-0.2645433070866142
 20
3.458543307086615
 30
0.0
 10
-0.2645433070866142
 20
3.458543307086615
 30
0.0
 10
-0.3182362204724409
 20
3.404232283464567
 30
0.0
 10
-0.376488188976378
 20
3.331031496062992
 30
0.0
 10
-0.376488188976378
 20
3.226433070866142
 30
0.0
 10
-0.376488188976378
 20
3.226433070866142
 30
0.0
 10
-0.376488188976378
 20
3.226433070866142
 30
0.0
 10
-0.376488188976378
 20
3.169877952755906
 30
0.0
 10
-0.376488188976378
 20
3.169877952755906
 30
0.0
  0
SPLINE
  5
59
330
1F
100
AcDbEntity
  8
Layer 1
 62
   251
100
AcDbSpline
210
0.0
220
0.0
230
1.0
 70
    11
 71
     3
 72
    72
 73
    68
 74
     0
 42
0.0000000001
 43
0.0000000001
 40
0.0
 40
0.0
 40
0.0
 40
0.0
 40
0.0588235294117647
 40
0.0588235294117647
 40
0.0588235294117647
 40
0.0588235294117647
 40
0.1176470588235294
 40
0.1176470588235294
 40
0.1176470588235294
 40
0.1176470588235294
 40
0.1764705882352941
 40
0.1764705882352941
 40
0.1764705882352941
 40
0.1764705882352941
 40
0.2352941176470588
 40
0.2352941176470588
 40
0.2352941176470588
 40
0.2352941176470588
 40
0.2941176470588235
 40
0.2941176470588235
 40
0.2941176470588235
 40
0.2941176470588235
 40
0.3529411764705883
 40
0.3529411764705883
 40
0.3529411764705883
 40
0.3529411764705883
 40
0.411764705882353
 40
0.411764705882353
 40
0.411764705882353
 40
0.411764705882353
 40
0.4705882352941177
 40
0.4705882352941177
 40
0.4705882352941177
 40
0.4705882352941177
 40
0.5294117647058824
 40
0.5294117647058824
 40
0.5294117647058824
 40
0.5294117647058824
 40
0.5882352941176471
 40
0.5882352941176471
 40
0.5882352941176471
 40
0.5882352941176471
 40
0.6470588235294118
 40
0.6470588235294118
 40
0.6470588235294118
 40
0.6470588235294118
 40
0.7058823529411765
 40
0.7058823529411765
 40
0.7058823529411765
 40
0.7058823529411765
 40
0.7647058823529412
 40
0.7647058823529412
 40
0.7647058823529412
 40
0.7647058823529412
 40
0.823529411764706
 40
0.823529411764706
 40
0.823529411764706
 40
0.823529411764706
 40
0.8823529411764707
 40
0.8823529411764707
 40
0.8823529411764707
 40
0.8823529411764707
 40
0.9411764705882354
 40
0.9411764705882354
 40
0.9411764705882354
 40
0.9411764705882354
 40
1.0
 40
1.0
 40
1.0
 40
1.0
 10
-3.473405511811024
 20
2.825846456692914
 30
0.0
 10
-3.28259842519685
 20
2.825846456692914
 30
0.0
 10
-3.110448818897638
 20
2.997681102362205
 30
0.0
 10
-3.110448818897638
 20
3.188728346456693
 30
0.0
 10
-3.110448818897638
 20
3.188728346456693
 30
0.0
 10
-3.110448818897638
 20
3.188728346456693
 30
0.0
 10
-3.110448818897638
 20
3.202866141732284
 30
0.0
 10
-3.110448818897638
 20
3.202866141732284
 30
0.0
 10
-3.110448818897638
 20
3.202866141732284
 30
0.0
 10
-3.110448818897638
 20
3.30703937007874
 30
0.0
 10
-3.152543307086615
 20
3.379027559055118
 30
0.0
 10
-3.203551181102363
 20
3.434964566929134
 30
0.0
 10
-3.203551181102363
 20
3.434964566929134
 30
0.0
 10
-3.228803149606299
 20
3.462653543307087
 30
0.0
 10
-3.258917322834646
 20
3.493110236220473
 30
0.0
 10
-3.287866141732283
 20
3.503551181102362
 30
0.0
 10
-3.287866141732283
 20
3.503551181102362
 30
0.0
 10
-3.305354330708662
 20
3.509858267716536
 30
0.0
 10
-3.347173228346457
 20
3.551826771653543
 30
0.0
 10
-3.38855905511811
 20
3.542185039370079
 30
0.0
 10
-3.38855905511811
 20
3.542185039370079
 30
0.0
 10
-3.38855905511811
 20
3.542185039370079
 30
0.0
 10
-3.38855905511811
 20
3.551610236220473
 30
0.0
 10
-3.38855905511811
 20
3.551610236220473
 30
0.0
 10
-3.38855905511811
 20
3.551610236220473
 30
0.0
 10
-3.38855905511811
 20
3.551610236220473
 30
0.0
 10
-3.407228346456693
 20
3.546322834645669
 30
0.0
 10
-3.407228346456693
 20
3.546322834645669
 30
0.0
 10
-3.407228346456693
 20
3.546322834645669
 30
0.0
 10
-3.407228346456693
 20
3.546322834645669
 30
0.0
 10
-3.407413385826772
 20
3.556322834645669
 30
0.0
 10
-3.407413385826772
 20
3.556322834645669
 30
0.0
 10
-3.407413385826772
 20
3.556322834645669
 30
0.0
 10
-3.407413385826772
 20
3.556322834645669
 30
0.0
 10
-3.435740157480315
 20
3.551838582677166
 30
0.0
 10
-3.435740157480315
 20
3.551838582677166
 30
0.0
 10
-3.435740157480315
 20
3.551838582677166
 30
0.0
 10
-3.435740157480315
 20
3.551838582677166
 30
0.0
 10
-3.435696850393701
 20
3.561035433070866
 30
0.0
 10
-3.435696850393701
 20
3.561035433070866
 30
0.0
 10
-3.435696850393701
 20
3.561035433070866
 30
0.0
 10
-3.435696850393701
 20
3.561035433070866
 30
0.0
 10
-3.487547244094488
 20
3.561035433070866
 30
0.0
 10
-3.487547244094488
 20
3.561035433070866
 30
0.0
 10
-3.487547244094488
 20
3.561035433070866
 30
0.0
 10
-3.487547244094488
 20
3.561035433070866
 30
0.0
 10
-3.548744094488189
 20
3.555582677165354
 30
0.0
 10
-3.548744094488189
 20
3.555582677165354
 30
0.0
 10
-3.548744094488189
 20
3.555582677165354
 30
0.0
 10
-3.548744094488189
 20
3.555582677165354
 30
0.0
 10
-3.548822834645669
 20
3.546897637795276
 30
0.0
 10
-3.548822834645669
 20
3.546897637795276
 30
0.0
 10
-3.548822834645669
 20
3.546897637795276
 30
0.0
 10
-3.601590551181102
 20
3.572212598425197
 30
0.0
 10
-3.727413385826772
 20
3.461755905511811
 30
0.0
 10
-3.755157480314961
 20
3.432724409448819
 30
0.0
 10
-3.755157480314961
 20
3.432724409448819
 30
0.0
 10
-3.803472440944882
 20
3.382161417322835
 30
0.0
 10
-3.841074803149606
 20
3.287685039370079
 30
0.0
 10
-3.841074803149606
 20
3.188728346456693
 30
0.0
 10
-3.841074803149606
 20
3.188728346456693
 30
0.0
 10
-3.841074803149606
 20
3.188728346456693
 30
0.0
 10
-3.841074803149606
 20
3.184015748031496
 30
0.0
 10
-3.841074803149606
 20
3.184015748031496
 30
0.0
 10
-3.841074803149606
 20
3.184015748031496
 30
0.0
 10
-3.841074803149606
 20
2.985456692913386
 30
0.0
 10
-3.672476377952756
 20
2.825846456692914
 30
0.0
 10
-3.473405511811024
 20
2.825846456692914
 30
0.0
  0
ENDSEC
  0
SECTION
  2
OBJECTS
  0
DICTIONARY
  5
C
330
0
100
AcDbDictionary
281
     1
  3
ACAD_GROUP
350
D
  3
ACAD_IMAGE_DICT
350
2C
  3
ACAD_LAYOUT
350
1A
  3
ACAD_MLINESTYLE
350
17
  3
ACAD_PLOTSETTINGS
350
19
  3
ACAD_PLOTSTYLENAME
350
E
  0
IMAGEDEF_REACTOR
  5
2F
330
2E
100
AcDbRasterImageDefReactor
 90
        2
330
2E
  0
DICTIONARY
  5
D
102
{ACAD_REACTORS
330
C
102
}
330
C
100
AcDbDictionary
281
     1
  0
DICTIONARY
  5
2C
102
{ACAD_REACTORS
330
C
102
}
330
C
100
AcDbDictionary
281
     1
  3
Image #1
350
2D
  0
DICTIONARY
  5
1A
102
{ACAD_REACTORS
330
C
102
}
330
C
100
AcDbDictionary
281
     1
  3
Layout1
350
1E
  3
Layout2
350
26
  3
Model
350
22
  0
DICTIONARY
  5
17
102
{ACAD_REACTORS
330
C
102
}
330
C
100
AcDbDictionary
281
     1
  3
Standard
350
18
  0
DICTIONARY
  5
19
102
{ACAD_REACTORS
330
C
102
}
330
C
100
AcDbDictionary
281
     1
  0
ACDBDICTIONARYWDFLT
  5
E
102
{ACAD_REACTORS
330
C
102
}
330
C
100
AcDbDictionary
281
     1
  3
Normal
350
F
100
AcDbDictionaryWithDefault
340
F
  0
IMAGEDEF
  5
2D
102
{ACAD_REACTORS
330
2C
330
2F
102
}
330
2C
100
AcDbRasterImageDef
 90
        0
  1
C:\Users\Stony\Desktop\stepvan_ACD_0.jpg
 10
1779.0
 20
578.0
 11
0.0005621135469364812
 21
0.0005621135469364812
280
     1
281
     5
  0
LAYOUT
  5
1E
102
{ACAD_REACTORS
330
1A
102
}
330
1A
100
AcDbPlotSettings
  1

  2

  4

  6

 40
0.0
 41
0.0
 42
0.0
 43
0.0
 44
0.0
 45
0.0
 46
0.0
 47
0.0
 48
0.0
 49
0.0
140
0.0
141
0.0
142
1.0
143
1.0
 70
   688
 72
     0
 73
     0
 74
     5
  7

 75
    16
 76
     0
 77
     2
 78
   300
147
1.0
148
0.0
149
0.0
100
AcDbLayout
  1
Layout1
 70
     1
 71
     1
 10
0.0
 20
0.0
 11
12.0
 21
9.0
 12
0.0
 22
0.0
 32
0.0
 14
1.000000000000000E+20
 24
1.000000000000000E+20
 34
1.000000000000000E+20
 15
-1.000000000000000E+20
 25
-1.000000000000000E+20
 35
-1.000000000000000E+20
146
0.0
 13
0.0
 23
0.0
 33
0.0
 16
1.0
 26
0.0
 36
0.0
 17
0.0
 27
1.0
 37
0.0
 76
     0
330
1B
  0
LAYOUT
  5
26
102
{ACAD_REACTORS
330
1A
102
}
330
1A
100
AcDbPlotSettings
  1

  2

  4

  6

 40
0.0
 41
0.0
 42
0.0
 43
0.0
 44
0.0
 45
0.0
 46
0.0
 47
0.0
 48
0.0
 49
0.0
140
0.0
141
0.0
142
1.0
143
1.0
 70
   688
 72
     0
 73
     0
 74
     5
  7

 75
    16
 76
     0
 77
     2
 78
   300
147
1.0
148
0.0
149
0.0
100
AcDbLayout
  1
Layout2
 70
     1
 71
     2
 10
0.0
 20
0.0
 11
0.0
 21
0.0
 12
0.0
 22
0.0
 32
0.0
 14
0.0
 24
0.0
 34
0.0
 15
0.0
 25
0.0
 35
0.0
146
0.0
 13
0.0
 23
0.0
 33
0.0
 16
1.0
 26
0.0
 36
0.0
 17
0.0
 27
1.0
 37
0.0
 76
     0
330
23
  0
LAYOUT
  5
22
102
{ACAD_REACTORS
330
1A
102
}
330
1A
100
AcDbPlotSettings
  1

  2

  4

  6

 40
0.0
 41
0.0
 42
0.0
 43
0.0
 44
0.0
 45
0.0
 46
0.0
 47
0.0
 48
0.0
 49
0.0
140
0.0
141
0.0
142
1.0
143
1.0
 70
  1712
 72
     0
 73
     0
 74
     0
  7

 75
     0
 76
     0
 77
     2
 78
   300
147
1.0
148
0.0
149
0.0
100
AcDbLayout
  1
Model
 70
     1
 71
     0
 10
0.0
 20
0.0
 11
0.0
 21
0.0
 12
0.0
 22
0.0
 32
0.0
 14
-4.218173228346457
 24
2.646763779527559
 34
0.0
 15
4.054413385826772
 25
5.333031496062993
 35
0.0
146
0.0
 13
0.0
 23
0.0
 33
0.0
 16
1.0
 26
0.0
 36
0.0
 17
0.0
 27
1.0
 37
0.0
 76
     0
330
1F
  0
MLINESTYLE
  5
18
102
{ACAD_REACTORS
330
17
102
}
330
17
100
AcDbMlineStyle
  2
Standard
 70
     0
  3

 62
   256
 51
90.0
 52
90.0
 71
     2
 49
0.5
 62
   256
  6
BYLAYER
 49
-0.5
 62
   256
  6
BYLAYER
  0
ACDBPLACEHOLDER
  5
F
102
{ACAD_REACTORS
330
E
102
}
330
E
  0
ENDSEC
  0
EOF
